PrimaNota.ru - самый крупный в мире бесплатный архив песенных текстов, аккордов, табулатур и нот


Dream Theater - Missunderstood - таба, видео

Регистрация Запомнить меня
Войти через:  Facebook Google Twitter Vk Yandex Mail.ru

Dream Theater - Missunderstood - таба, видео

Печатать
Просмотров: 115
Уроки эстрадного вокала в Санкт-Петербурге
		   Author/Artist: Dream Theater
Title: Missunderstood
Album: 6 degrees of inner turbelence
Transcribed by: Andreas Grimell
Email: agrimell@hotmail.com

D-drop
P.H.-Pinched Harmonic
h-Hammer on
p-Pull off

Acostic Guitar

E-|-2--------2-3-2----0---------0----0h2-------2-3-2---------------1-|
B-|-3---3----------3--3---3---3------3-----3---------3--1--------1---|
G-|-2------2----------3-----3--------2-------2----------3----3-------|
D-|-0-0---------------2--------------0---0--------------3------------|
A-|-------------------1-1-------------------------------3--3---3-----|
D-|------------------------------------------------------------------|
  Intro

E-|-2--------2-3-2----0-----------0--------0----0----------|
B-|-3---3----------3--3---3---3---2------3------0----------|
G-|-2------2----------3-----3-----2----2--------0---2------|
D-|-0-0---------------2-----------2-------------2-------2--|
A-|-------------------1-1---------0--0----------2----------|
D-|---------------------------------------------2-5---5----|


--------------------|-------------|
---0----------------|-----0-1p0---|
---2----2-----------|-----2-----2-|
---0----------2-----|-----3-------|
--------------------|-----3-------|
---4--4-----4-------|-----3-------|



|--2-----2-3-2--0---------0--0h2-----2-3-2------------1-|
|--3---3-3-3-3--3---3---3----3-----3-3-3-3--1-------1---|
|--2-----2-2-2--3-----3------2-------2-2-2--3---3-------|
|--0-0---0-0-0--2------------0---0---0-0-0--3-----------|
|---------------1-1-------------------------3-3---3-----|
|-------------------------------------------------------|
               Vocals enters 0:39

E-|-2-----2-3-2--0---------------------------------------------|
B-|-3---3-3-3-3--3---3---3------3-------2-------3---------2----|
G-|-2-----2-2-2--3-----3------0---0---0---0---0---0-----0---0--|
D-|-0-0---0-0-0--2---------------------------------------------|
A-|--------------1-1----------------0-------1---------0--------|
D-|-------------------------5----------------------------------|
                           0:59

E-2-----2-3-2--0---------0-0h2----2-3-2-------------1-|
B-3---3-3-3-3--3---3---3---3----3-3-3-3---1-------1---|
G-2-----2-2-2--3-----3-----2------2-2-2---3---3-------|
D-0-0---0-0-0--2-----------0--0---0-0-0---3-----------|
A--------------1-1------------------------3-3---3-----|
D-----------------------------------------------------|


E--2-----2-3-2--0---------|
B--3---3-3-3-3--3--3---3--|
G--2-----2-2-2--3----3----|
D--0-0---0-0-0--2---------|
A---------------1-1-------|
D-------------------------|

E-------------------------------------------------|
B-----3-------2-------3-------2-------3-------2---|
G---0---0---0---0---0---0---0---0---0---0---0---0-|
D-------------------------------------------------|
A---------0-------1-------0---------------0-------|
D-5-------------------------------5---------------|
1:26

E-------------------------------------|
B-------------------------------------|
G-------3-2-----3-2-----3-2-------3-2-|
D-----0-------0-------0---------0-----|
A-------------------------------------|
D---0-------2-------3---------5-------|  no guitar 1:42


Electric Guitar
E------------------------------------------------
B--7-7-7-8-10--------------7-7-7-8-10------------
G-------------9-9-7--7-9-9-----------5-5-3-2-----
D--0-0-0-0-0- -Ect. ect...-----------------------
A------------------------------------------------
E------------------------------------------------
"Guitar Solo"  2:20

E--------------------------------8-8---------------------------|
B-7-7-8-10-------------7-7-7-8-9-----11-10---------------------|
G----------9-9-7-7-9-----------------------6-6-7-9-------------|
D--------------------------------------------------9-7-7-9-7-7-|
A--------------------------------------------------------------|
E--------------------------------------------------------------|

    P.H.
E|--14----------------------------|--
B|--------------------------------|--
G|---------------3----------------|--
D|---------0--0--2---5--2--3------|--
A|---------0--0--1---5--2--3------|--
D|---------0--0------5--2--3------|--
B|--------------------------------|--
Heavy distortion =) 3:35 (7th string guitar)

E-----------------------|-----------------------------------------|
B-----------------------|-----------------------------------------|
G-------3--5------------|------3------------3-2---3-2---3-2---3-2-|
D-0--0--3--3--5---2--3--|-0-0--3--5--2-3--3-----3-----0-----0-----|
A-0--0--1--3--5---2--3--|-0-0--1--5--2-3--------------------------|
D-0--0--------5---2--3--|-0-0-----5--2-3--------------------------|
B-----------------------|-----------------------------------------|

E-|------------------------------------------|
B-|------------------------------------------|
G-|------------------------------------------|
D-|--4-5-4---4-5-4---------------------------|
A-|5-------5-------5/7---5-7-5---5-7-5-7/8-7-|
D-|--------------------8-------8-------------|
B-|------------------------------------------|
   4:07-4:32                             x4

E-|-----------------------------------------------------|
B-|-----------------------------------------------------|
G-|----------------------------------------------6-7----|
D-|--2-4-5-4--5--7--8----------2-4-5-4--5--7--8--6-7-5--|
A-|--2-4-5-4--5--7--8--4-3-----2-4-5-4--5--7--8--4-5-5--|
D-|--2-4-5-4--5--7--8--6-5-----2-4-5-4--5--7--8------5--|
B-|--------------------2-1------------------------------|
  4:32        (same chord under the guitar solo)

E-|-------------------------------|
B-|-------------------------------|
G-|-------------------------------|
A-|-------------------------------|
D-|-------------------------------|
E-|-------------------------------|
B---------------------------------|
   Guitar solo coming up...
     
Добавлено: 08.11.2013
Другие материалы по этой песне:
  • Аккорды и текст

Страница создана 25.08.2013
http://primanota.ru/dream-theater/missunderstood-chords.htm
Привет, Гость.
Предлагаем пройти революционный курс по гитаре.
Подарок от PrimaNota.Ru, забирай!