PrimaNota.ru - самый крупный в мире бесплатный архив песенных текстов, аккордов, табулатур и нот


Dream Theater - Under The Glass Moon - таба, видео

Регистрация Запомнить меня
Войти через:  Facebook Google Twitter Vk Yandex Mail.ru

Dream Theater - Under The Glass Moon - таба, видео

Печатать
Просмотров: 120
Under the glass moon
From the Images and words album.

Firstly I didn't tab this I just want to make people more aware of JP awesome
style. Here is the solo and it one worth learning to try to get under the skin of
John Petrucci.

* Full
               /-----\
E------------------------|----12--16--12------------------------------|-------|
B------------------------|-5/-------------14--12----------------------|-------|
G-6*--(6)6--4------------|------------------------13-9----------------|-------|
D--------------6-4-------|-----------------------------11-9-----------|-------|
A------------------6-4--6|-----------------------------------11-7-----|-------|
E------------------------|----------------------------------------9-7-|-0-5-4-|

                 /-----\ /------\  /-----\     1/2    1/2   /---------\
E----|------------------------------|-----------------------------------------|
B----|/5--7-5--0-7--9-7-0--12*---9--|--11-----------------------9-------------|
G----|------------------------------|-----------------------------11-9--------|
D----|------------------------------|----------------------------------11-9-8-|
A----|------------------------------|-----------------------------------------|
E--3-|------------------------------|-----------------------------------------|

             /---\
E----9--11--12-11-9----------------------------------------|-----------------|
B-12----------------12--11--9------------------------------|-----------------|
G------------------------------11-9-8----------------------|-----------------|
D-------------------------------------11-9-8---------------|--------11-------|
A--------------------------------------------11-9-7--------|---11------------|
E---------------------------------------------------11-9-7-|-9----------9----|

                                 /-----\
E-12--12--12--12-|--------------------------|----------------|---------------|
B-11--11--11--11-|--------------------------|------------12*-|-14/12---------|
G----------------|-----9--------------------|----------------|---------------|
D----------------|-----9---11/9-------------|-------11-------|---------------|
A----------------|-/11-----------9-10-9-7---|----11----------|---------------|
E----------------|------------------------9-|--9-------9-----|---------------|

  /---------\  /--------\   1/2--------------------------------------------
E-----------------------------------|-----------14---13--11--------|----------|
B-----------------------------------|-----12----------------14--12-|----------|
G-13-12-13-12--11--9--11-9---11--9--|-/11----11--------------------|----------|
D-----------------------------------|------------------------------|----------|
A-----------------------------------|------------------------------|----------|
E-----------------------------------|------------------------------|----------|


E----13-14-16-14-13-14-13----13---------|-19-----------------------------|---|
B-16----------------------16----16-14-16|----16--------------------------|---|
G---------------------------------------|-------16----------16--------18-|---|
D---------------------------------------|----------16-13-----------16----|---|
A---------------------------------------|----------------14-----14-------|---|
E---------------------------------------|--------------------------------|---|

                                             /------\
E-------------------------------------14-16--18-16-14-------------------------|
B----------------------------14-16-17-----------------------------------------|
G-------------------13-15-16--------------------------------------------------|
D----------13-14-16-----------------------------------------------------------|
A-13-14-16--------------------------------------------------------------------|
E-----------------------------------------------------------------------------|

E-19*-19*-~-----|--19-------16-------19-------16-------19-------16-|------14-|
G------------12-|-----17/14----14/17----17/14----14/17----17/14----|-17*-----|
G---------------|--------------------------------------------------|---------|
D---------------|--------------------------------------------------|---------|
A---------------|--------------------------------------------------|---------|
E---------------|--------------------------------------------------|---------|

E-----------14-----------14-----------14-------14-----14-----14|-------------|
B-17-14-17*----17-14-17*----17-14-17*----17*------17*----17*---|-17-16-14----|
G--------------------------------------------------------------|----------17-|
D--------------------------------------------------------------|-------------|
A--------------------------------------------------------------|-------------|
E--------------------------------------------------------------|-------------|
                                                        B      T
                                                     /-----\   /------\
E---------------------------------|----------------|--------------------------|
B---------------------------------|----------------|-5-(5)-5---12(12)12---5---|
G--16--15-14----------------------|-------------4--|--------------------------|
D------------16-14----------16----|-----4---6------|--------------------------|
A------------------16-15-14----14-|---2------------|--------------------------|
E---------------------------------|-0--------------|--------------------------|
  T
  /------\                 /----------------\
E-12(12)12---7-|-12-----------------------------------------------------------|
B--------------|-12--------12--14--17--14--12-------------12------------------|
G--------------|--------13----------------------13-----13---------------------|
D--------------|-----14-----------------------------14------------------------|
A--------------|--------------------------------------------------------------|
E--------------|--------------------------------------------------------------|

  /------------------\                   /---------\  T
E-12-14-16-18-16-14-12-------|-----------12-14-16-18--21-18-16-14-12-14-16-18-|
B----------------------12----|--------12--------------------------------------|
G-------------------------13-|-----13-----------------------------------------|
D----------------------------|--14--------------------------------------------|
A----------------------------|------------------------------------------------|
E----------------------------|------------------------------------------------|
                                         (DIVE BACK)
  T                                       1/2            1/2       1/2
E-21-18-16-14-12--14-16-18-|------|-------------------------------------------|
B--------------------------|-14*--|-11-14-11----------14-11-----14-11---------|
G--------------------------|------|-------------------------------------------|
D--------------------------|------|-------------------------------------------|
A--------------------------|------|-------------------------------------------|
E--------------------------|------|-------------------------------------------|

    (RELEASE VIOLENTLY)
E-----------------------|----------------------11--12/11----14/11----16/12--|
B--14-11~~~~------------|-12/11----11-14/11--------------12-------12--------|
G-----------------------|-------13----------13------------------------------|
D-----------------------|---------------------------------------------------|
A-----------------------|---------------------------------------------------|
E-----------------------|---------------------------------------------------|

                             /--------\|        (RELEASE AGAIN)
E----18/14----19/16----19*-|-----------------------------------|------------|
B-14-------16-------17-----|-19*-19---16-----------------------|------------|
G--------------------------|-----------------------------------|-18*--(18)--|
D--------------------------|--------------18*--(18)/8---16-----|------------|
A--------------------------|-----------------------------------|------------|
E--------------------------|-----------------------------------|------------|

E--------------------|-------------------------16-17-18--19-19-18-17-16------|
B-16--18--16~~~~~~~~~|-------------16-17-18-19--------------------------19---|
G--------------------|-15-16-17-18-------------------------------------------|
D--------------------|-------------------------------------------------------|
A--------------------|-------------------------------------------------------|
E--------------------|-------------------------------------------------------|

E----------------|-----------------------------------------------------------|
B-18-17-16-------|-----------------------------------------------------------|
G----------18-17-|-16--15-18-17-16-15----------------------------------------|
D----------------|--------------------18-17--16-15---------------------------|
A----------------|---------------------------------18--17-16-15--------------|
E----------------|----------------------------------------------18-17-16-15--|
Добавлено: 07.07.2012
Другие материалы по этой песне:
  • Аккорды и текст

Страница создана 07.07.2012
http://primanota.ru/dream-theater/under-the-glass-moon-chords.htm
Привет, Гость.
Предлагаем пройти революционный курс по гитаре.
Подарок от PrimaNota.Ru, забирай!