PrimaNota.ru - самый крупный в мире бесплатный архив песенных текстов, аккордов, табулатур и нот


Dragonforce - Soldiers Of The Wastelands - текст песни, таба, видео

Регистрация Запомнить меня
Войти через:  Facebook Google Twitter Vk Yandex Mail.ru

Dragonforce - Soldiers Of The Wastelands - текст песни, таба, видео

Печатать
Просмотров: 108
Tabbed by:-HaZe. (im making an account soon :{))
I'm not sure if this helps but i know the intro .im kinda blank after that :|. This is what i got:

B^=bend up
~=slide
h=hammer on
p=pull off

e-------------2--------------------------2-------------------------|
B-------0-3-5---5-3-5-5~7-5-3-0----0-3-5---5-3-5h7p5-3-0---0-3-5---|
G-------------------------------2------------------------2---------|
D------------------------------------------------------------------|
A------------------------------------------------------------------|
E------------------------------------------------------------------|


e---2-------------------------7-----------------------------7------|
B-----5-3-5p3p2--------7-7-10---10p7-10~12-10p7------7-7h10---10p7-|
G---------------1-3-----------------------------9p7----------------|
D------------------------------------------------------------------|
A------------------------------------------------------------------|
E------------------------------------------------------------------|


e-----------------------2--------------------------2---------------|
B-10~12~10-7-10---0-3-5---5-3-5-5~7-5---0----0-3-5---5-3-5~7~5-3-5-|
G-------------------------------------7---2------------------------|
D------------------------------------------------------------------|
A------------------------------------------------------------------|
E------------------------------------------------------------------|


e--------2-----0---------|
B--0-3-5---5-3---3-2-----|
G--------------------2-4-|
D------------------------|
A------------------------|
E------------------------|

e----------------------------------------------------------|
B----------------------------------------------------------|
G----------------------------------------------     repeat-|4x
D-------------------------------------------2--------------|
A-0-2-2-0-2-5-2-2-0-2-5-2-2-0-2-5-2-4-2-5-2---2------------|
E----------------------------------------------------------|

5th time do this:

e-------------------------|
B-------------------------|
G-------------------------|
D----------------------4--|
A-0-2-2-0-2-5-2-2-0-2--4--|
E----------------------2--|


And thats all i got. thanx !hope it helps: )!

-HaZe.

               () ()
              ( *_* )
              (  o  )
               (| |)
Добавлено: 12.07.2012
Другие материалы по этой песне:

Страница создана 10.03.2012
http://primanota.ru/dragonforce/soldiers-of-the-wastelands-chords.htm
Привет, Гость.
Предлагаем пройти революционный курс по гитаре.
Подарок от PrimaNota.Ru, забирай!