PrimaNota.ru - самый крупный в мире бесплатный архив песенных текстов, аккордов, табулатур и нот


Dragonforce - The Warrior Inside - текст песни, таба, видео

Регистрация Запомнить меня
Войти через:  Facebook Google Twitter Vk Yandex Mail.ru

Dragonforce - The Warrior Inside - текст песни, таба, видео

Печатать
Просмотров: 202
Авторы музыки: Vadim Pruzhanov, Sam Totman
Авторы текста: Herman Li, ZP Theart, Sam Totman
I decide to do this because i connot access power tabs or guitar pro, 
so, for the first time ive tryed to play a song by ear :D. 
If any of this is already on power tab then 
1) i didn't know, sorry 2) yay i got something right.

I'm only 14... i dont even do my homework any more 
(not that i ever did :P)so go easy on me.
DRAGONFORCE XD


H- hold
h- hammer
x- muted
/- slide
w- Whammy bar

Part 1

Keyboard
E--------------------------------|
B--------8---8---10/12-10--------|
G--12-12---7---7----------12-----|
D--------------------------------|
A--------------------------------|
E--------------------------------|

E--------------------------------|
B----10-8-10-12-10-8-10-8--------|
G--9-----------------------9-----|
D--------------------------------|
A--------------------------------|
E--------------------------------|

E--------------------------------|
B----8-7-8-10-10-8-7---8---------|
G--7-----------------9-----------|
D--------------------------------|
A--------------------------------|
E--------------------------------|

E----------10------10------10----|
B----8-7-8----10-8----10-8-------|
G--9-----------------------------|
D--------------------------------|
A--------------------------------|
E--------------------------------|

Guitar 1- same time as keyboard
E--------------------------------|
B--------------------------------|
G--12H-9H-7H-12H-----------------|
D--------------------------------|
A--------------------------------|
E--------------------------------|

Part 2

Keyboard
E--------------------------------|
B--------8---8---10/12-10--------|
G--12-12---7---7----------12-----|
D--------------------------------|
A--------------------------------|
E--------------------------------|

E--------------------------------|
B----10-8-10-12-10-8-10-8--------|
G--9-----------------------9-----|
D--------------------------------|
A--------------------------------|
E--------------------------------|

(Guiatr 1- ?)

Guitar 2
      xxx xxx
E--------------------------------|
B--------------------------------|
G--------------------------------|
D---------555-88888888-77-777777-|
A--55-555-333-66666666-55-555555-|
E--33-333------------------------|

Part 3

Guitar 1
E--------------------------------|
B--12-10-8-7-5-3-5-3w------------|
G--------------------------------|
D--------------------------------|
A--------------------------------|
E--------------------------------|

E-------------------------------------------|
B--12-10-8-7h8p7p8p7-5h7p5p7p5-3-7/8/10/12-?|
G-------------------------------------------|
D-------------------------------------------|
A-------------------------------------------|
E-------------------------------------------|

Guitar 2- same time as guitar 1
   xxxxxxxxxxxxxxxx xxxxxxxx
E---------------------------------------------------------|
B---------------------------------------------------------|
G---------------------------------------------------------|
D-------------------7--------7-7--5----------------9--7---|
A--5----------------55555555-5-5--3333333333333333-7H-5H--|
E--3333333333333333---------------------------------------|


Yeah, im not so good at it... if you want me to continue it, 
though i highly doubt it, i will try.
Добавлено: 23.06.2012
Другие материалы по этой песне:

Страница создана 28.02.2012
http://primanota.ru/dragonforce/the-warrior-inside-chords.htm
Привет, Гость.
Предлагаем пройти революционный курс по гитаре.
Подарок от PrimaNota.Ru, забирай!