PrimaNota.ru - самый крупный в мире бесплатный архив песенных текстов, аккордов, табулатур и нот


Дороги Меняют Цвет (ДМЦ) - На небесах - аккорды и текст, видео

Регистрация Запомнить меня
Войти через:  Facebook Google Twitter Vk Yandex Mail.ru

Дороги Меняют Цвет (ДМЦ) - На небесах - аккорды и текст, видео

Печатать
Просмотров: 799
На небесах
Дороги Меняют Цвет (ДМЦ)
| Em | C | Am7 | Em/H H7 |
Табы:

--Em---------------------------------------------C
E---------0----------0----------0----------0-|----------0--------0---------0---------0-|
H------0----------0----------0----------0----|------1---------1---------1---------1----|
G--0----------0----------0----------0--------|--0----------0---------0---------0-------|
D----------------------------------------------|-------------------------------------------|
A----------------------------------------------|--3----------------------------------------|
E--0-------------------------------------------|-------------------------------------------|

--Am7-----------------------------------------Em/H-----------------H7
E----------0----------0---------0---------0-|--------0--------0------------2-------2-|
H------1-----------1---------1---------1----|-----0--------0------------0--------0---|
G--0----------0-----------0---------0-------|--0--------0----------2----------2------|
D---------------------------------------------|------------------------------------------|
A--0------------------------------------------|--2-------------------2-----------------|
E---------------------------------------------|------------------------------------------|
Добавлено: 08.02.2014
Другие материалы по этой песне:
  • Аккорды и текст

Страница создана 08.02.2014
http://primanota.ru/dorogi-menyayut-cvet-dmc/na-nebesax-chords.htm
Привет, Гость.
Предлагаем пройти революционный курс по гитаре.
Подарок от PrimaNota.Ru, забирай!