PrimaNota.ru - самый крупный в мире бесплатный архив песенных текстов, аккордов, табулатур и нот


Дороги Меняют Цвет (ДМЦ) - Осень - аккорды и текст, видео

Регистрация Запомнить меня
Войти через:  Facebook Google Twitter Vk Yandex Mail.ru

Дороги Меняют Цвет (ДМЦ) - Осень - аккорды и текст, видео

Печатать
Просмотров: 519
Уроки эстрадного вокала в Санкт-Петербурге
Осень
Дороги Меняют Цвет (ДМЦ)
Вступление:

e---------7----7----7--------2----2----2-------3----3---3-----------3------3-----3
h------------------------------------------------------------------------------------------
g------7----7----7--------2-----2----2-------4---4---4----------4-------4-----4------
d--5--------------------0-------------------2---------------------------------------------
a-------------------------------------------------------------------3-----------------
e----------------------------------------------------------------------------------------


e---------7----7----7--------2----2----2-------3----3---3----------3-3-3--3
h------------------------------------------------------------------------------------------
g------7----7----7--------2-----2----2-------4---4---4-------------------
d--5--------------------0-------------------2---------------------------------------------
a-------------------------------------------------------------------3---------------
e----------------------------------------------------------------------------------------


потом то же самое, только боем: 
бас вниз бас вверх вниз баз вверх
Куплет:
| Dm | C#m7 | A7 x2|
| Dm | C#m7 | A7 x2|

С «расставались мы...":
| BM7 | Gm7 | A7 | Dm |
| BM7 | Gm7 | A7 x2|

Припев:
| G | D | Em | C |
| Am x2 | C | D |
| G | D | Em | C |
| Am x2 | C | D |
Добавлено: 17.04.2014
Другие материалы по этой песне:
  • Аккорды и текст

Страница создана 17.04.2014
http://primanota.ru/dorogi-menyayut-cvet-dmc/osen-chords.htm
Привет, Гость.
Предлагаем пройти революционный курс по гитаре.
Подарок от PrimaNota.Ru, забирай!