PrimaNota.ru - самый крупный в мире бесплатный архив песенных текстов, аккордов, табулатур и нот


Dope - Bastard - текст песни, таба, видео

Регистрация Запомнить меня
Войти через:  Facebook Google Twitter Vk Yandex Mail.ru

Dope - Bastard - текст песни, таба, видео

Печатать
Просмотров: 110
Song: Bastard
Artist: Dope
Album: American Apathy (2005)
Tunning: C#G#C#F#A#D#


Intro: 2x
D#|---------------------------------------------------------------|
A#|---------------------------------------------------------------|
F#|-------------------------------------------------------------%-|
C#|-0-3-7-0-7-6-0-5-6-0-6-5-0-3-5-6-0-3-7-0-7-6-0-5-6-0-6-5-0-3---|
G#|-0-3-7-0-7-6-0-5-6-0-6-5-0-3-5-6-0-3-7-0-7-6-0-5-6-0-6-5-0-3---|
C#|-0-3-7-0-7-6-0-5-6-0-6-5-0-3-5-6-0-3-7-0-7-6-0-5-6-0-6-5-0-3---|

Riff 1:
D#|-----|
A#|-----|
F#|-----|
C#|-0~ -|
G#|-0~ -|
C#|-0~ -|

Riff 2:
D#|---------------------------------------------------------------|
A#|---------------------------------------------------------------|
F#|-------------------------------------------------------------%-|
C#|-0-3-7-0-7-6-0-5-6-0-6-5-0-3-5-6-0-3-7-0-7-6-0-5-6-0-6-5-0-3---|
G#|-0-3-7-0-7-6-0-5-6-0-6-5-0-3-5-6-0-3-7-0-7-6-0-5-6-0-6-5-0-3---|
C#|-0-3-7-0-7-6-0-5-6-0-6-5-0-3-5-6-0-3-7-0-7-6-0-5-6-0-6-5-0-3---|

Riff 2:
D#|-----|
A#|-----|
F#|-----|
C#|-0~ -|
G#|-0~ -|
C#|-0~ -|

Chours:
D#|---------------------------------------------------------------|
A#|---------------------------------------------------------------|
F#|-------------------------------------------------------------%-|
C#|-0-3-7-0-7-6-0-5-6-0-6-5-0-3-5-6-0-3-7-0-7-6-0-5-6-0-6-5-0-3---|
G#|-0-3-7-0-7-6-0-5-6-0-6-5-0-3-5-6-0-3-7-0-7-6-0-5-6-0-6-5-0-3---|
C#|-0-3-7-0-7-6-0-5-6-0-6-5-0-3-5-6-0-3-7-0-7-6-0-5-6-0-6-5-0-3---|

Bridge:
D#|---------------------------------||-------------------------------||-------------------------|
A#|---------------------------------||-------------------------------||-------------------------|
F#|-------------8-------------------||-------------8-----------------||----------8------------%-|
C#|-0--6--0--05-8-6-0--6--0--05-1-6-||-0--6--0--05-8-6-0--6--0--05-1-||-0--6--05-8-6--0--6--0---|
G#|-0--6--0--05-6-6-0--6--0--05-1-6-||-0--6--0--05-6-6-0--6--0--05-1-||-0--6--05-6-6--0--6--0---|
C#|-0--6--0--05---6-0--6--0--05-1-6-||-0--6--0--05---6-0--6--0--05-1-||-0--6--05---6--0--6--0---|

Riff 2: 2x
D#|---------------------------------------------------------------|
A#|---------------------------------------------------------------|
F#|-------------------------------------------------------------%-|
C#|-0-3-7-0-7-6-0-5-6-0-6-5-0-3-5-6-0-3-7-0-7-6-0-5-6-0-6-5-0-3---|
G#|-0-3-7-0-7-6-0-5-6-0-6-5-0-3-5-6-0-3-7-0-7-6-0-5-6-0-6-5-0-3---|
C#|-0-3-7-0-7-6-0-5-6-0-6-5-0-3-5-6-0-3-7-0-7-6-0-5-6-0-6-5-0-3---|

Riff 1:
D#|-----|
A#|-----|
F#|-----|
C#|-0~ -|
G#|-0~ -|
C#|-0~ -|

Riff 2:
D#|---------------------------------------------------------------|
A#|---------------------------------------------------------------|
F#|-------------------------------------------------------------%-|
C#|-0-3-7-0-7-6-0-5-6-0-6-5-0-3-5-6-0-3-7-0-7-6-0-5-6-0-6-5-0-3---|
G#|-0-3-7-0-7-6-0-5-6-0-6-5-0-3-5-6-0-3-7-0-7-6-0-5-6-0-6-5-0-3---|
C#|-0-3-7-0-7-6-0-5-6-0-6-5-0-3-5-6-0-3-7-0-7-6-0-5-6-0-6-5-0-3---|

Riff 1:
D#|-----|
A#|-----|
F#|-----|
C#|-0~ -|
G#|-0~ -|
C#|-0~ -|

Chours:
D#|---------------------------------------------------------------|
A#|---------------------------------------------------------------|
F#|-------------------------------------------------------------%-|
C#|-0-3-7-0-7-6-0-5-6-0-6-5-0-3-5-6-0-3-7-0-7-6-0-5-6-0-6-5-0-3---|
G#|-0-3-7-0-7-6-0-5-6-0-6-5-0-3-5-6-0-3-7-0-7-6-0-5-6-0-6-5-0-3---|
C#|-0-3-7-0-7-6-0-5-6-0-6-5-0-3-5-6-0-3-7-0-7-6-0-5-6-0-6-5-0-3---|

Bridge:
D#|---------------------------------||-------------------------------||-------------------------------|
A#|---------------------------------||-------------------------------||-------------------------------|
F#|-------------8-------------------||-------------8-----------------||-------------8-----------------|
C#|-0--6--0--05-8-6-0--6--0--05-1-6-||-0--6--0--05-8-6-0--6--0--05-1-||-0--6--0--05-8-6-0--6--0--05-1-|
G#|-0--6--0--05-6-6-0--6--0--05-1-6-||-0--6--0--05-6-6-0--6--0--05-1-||-0--6--0--05-6-6-0--6--0--05-1-|
C#|-0--6--0--05---6-0--6--0--05-1-6-||-0--6--0--05---6-0--6--0--05-1-||-0--6--0--05---6-0--6--0--05-1-|

Riff 2: 2x
D#|---------------------------------------------------------------|
A#|---------------------------------------------------------------|
F#|-------------------------------------------------------------%-|
C#|-0-3-7-0-7-6-0-5-6-0-6-5-0-3-5-6-0-3-7-0-7-6-0-5-6-0-6-5-0-3---|
G#|-0-3-7-0-7-6-0-5-6-0-6-5-0-3-5-6-0-3-7-0-7-6-0-5-6-0-6-5-0-3---|
C#|-0-3-7-0-7-6-0-5-6-0-6-5-0-3-5-6-0-3-7-0-7-6-0-5-6-0-6-5-0-3---|

Bridge 2: 2x
D#|------------------------------|
A#|------------------------------|
F#|----------------------------%-|
C#|------------------------------|
G#|------------------------------|
C#|-0-11-10-9-0-9-8-7-0-7-6-5----|

Bridge 3:
D#|------------------------------||-----------------------------------||-------------------------------|
A#|------------------------------||-----------------------------------||-------------------------------|
F#|----------------------------%-||-----------------------------------||-------------------------------|
C#|------------------------------||-----------------------------------||---------------------------4-1-|
G#|------------------------------||-----------------------------------||---------------------------4-1-|
C#|-0-11-10-9-0-9-8-7-0-7-6-5----||-0-11-10-9-0-9-8-7-0-7-6-5-4-3-2-1-||-0-11-10-9-0-9-8-7-0-7-6-5-4-1-|

Bride 4: 4x
D#|-----------------------------------|
A#|-----------------------------------|
F#|-----------------------------------|
C#|-0-11-10-9-0-9-8-7-0-7-6-5-4-3-2-1-|
G#|-0-11-10-9-0-9-8-7-0-7-6-5-4-3-2-1-|
C#|-0-11-10-9-0-9-8-7-0-7-6-5-4-3-2-1-|

Riff 1:
D#|-----|
A#|-----|
F#|-----|
C#|-0~ -|
G#|-0~ -|
C#|-0~ -|

Bridge 5:
D#|---------------------------------||-------------------------------|
A#|---------------------------------||-------------------------------|
F#|-------------8-------------------||-------------8-----------------|
C#|-0--6--0--05-8-6-0--6--0--05-1-6-||-0--6--0--05-8-6-0--6--0--05-1-|
G#|-0--6--0--05-6-6-0--6--0--05-1-6-||-0--6--0--05-6-6-0--6--0--05-1-|
C#|-0--6--0--05---6-0--6--0--05-1-6-||-0--6--0--05---6-0--6--0--05-1-|

Bridge:
D#|---------------------------------||-------------------------------||-------------------------------|
A#|---------------------------------||-------------------------------||-------------------------------|
F#|-------------8-------------------||-------------8-----------------||-------------8-----------------|
C#|-0--6--0--05-8-6-0--6--0--05-1-6-||-0--6--0--05-8-6-0--6--0--05-1-||-0--6--0--05-8-6-0--6--0--05-1-|
G#|-0--6--0--05-6-6-0--6--0--05-1-6-||-0--6--0--05-6-6-0--6--0--05-1-||-0--6--0--05-6-6-0--6--0--05-1-|
C#|-0--6--0--05---6-0--6--0--05-1-6-||-0--6--0--05---6-0--6--0--05-1-||-0--6--0--05---6-0--6--0--05-1-|

Riff 2: 3x
D#|---------------------------------------------------------------|
A#|---------------------------------------------------------------|
F#|-------------------------------------------------------------%-|
C#|-0-3-7-0-7-6-0-5-6-0-6-5-0-3-5-6-0-3-7-0-7-6-0-5-6-0-6-5-0-3---|
G#|-0-3-7-0-7-6-0-5-6-0-6-5-0-3-5-6-0-3-7-0-7-6-0-5-6-0-6-5-0-3---|
C#|-0-3-7-0-7-6-0-5-6-0-6-5-0-3-5-6-0-3-7-0-7-6-0-5-6-0-6-5-0-3---|
Добавлено: 29.04.2016
Другие материалы по этой песне:

Страница создана 19.04.2012
http://primanota.ru/dope/bastard-chords.htm
Привет, Гость.
Предлагаем пройти революционный курс по гитаре.
Подарок от PrimaNota.Ru, забирай!