PrimaNota.ru - самый крупный в мире бесплатный архив песенных текстов, аккордов, табулатур и нот


Дельфин - Она - аккорды и текст, видео

Регистрация Запомнить меня
Войти через:  Facebook Google Twitter Vk Yandex Mail.ru

Дельфин - Она - аккорды и текст, видео

Печатать
Просмотров: 356
Она
Дельфин
  вступление и куплет :
  
 ------------------------------------
 -------4-------------4--------------
 -------------6-6----------6-6--6/8--
 ------------------------------------
 ------------------------------------
 ------------------------------------

  проигрыш :
 ------------------------------------------------------------------
 -------4----------------------------------------------------------
 -----------6-6/8--8-10/11----6-------10-----6-------10---10/1110-
 ---------------------------------10------------10-----------------
 ------------------------------------------------------------------ 
 ------------------------------------------------------------------

  2проигрыш :

 ------------------------------------------------------------------------------
 ------------------------------------------------------------------------------
 ------6-------10--------6-------10---------6-------10----6-------10--10/1110-
 ----------10------13------10---------13-------10-------------10---------------
 ------------------------------------------------------------------------------
 ------------------------------------------------------------------------------


Две подруги рука об руку, одна без другой никогда не бывает
Два совершенно разных облика: одна играется, с другой играют
Одна за решеткой времени спрятана, другая вне этой решетки свободна
И только одним жизнь и смерть связаны - обе они женского рода

Жизнь умиляет своею глупостью
Цель неясна, средства туманны
То и дело встречаешься с ее скупостью,
Прося хоть толику небесной манны
У смерти для тебя нет предложений
Она молча делает свое дело,
Забирая душу твою для будущих воскрешений
На три дня родным оставляя тело

Наверное жизнь свою надо в кого-нибудь вкладывать
Хотя для чего все равно не понятно,
Но может быть тогда она станет радовать
В отдельные моменты становясь приятной
Вот тогда можно со смертью спорить,
Отбрасывая себя в конец очереди
Не к ней готовиться, а ее для себя готовить
Относясь к ней как отец к дочери

Еще не известно, как что происходит
Может быть смерть жизнью кончается
Но ведь каждый сюда за чем-то приходит
Для чего-то он здесь появляется
Жизнь и смерть что-то от меня прячут
Хотят сделать из меня урода
Это просто слова которые вообще ничего не значат,
Кроме того что они женского рода
Добавлено: 18.06.2012
Другие материалы по этой песне:

Страница создана 22.03.2012
http://primanota.ru/dolphin/ona-chords.htm
Привет, Гость.
Предлагаем пройти революционный курс по гитаре.
Подарок от PrimaNota.Ru, забирай!