PrimaNota.ru - самый крупный в мире бесплатный архив песенных текстов, аккордов, табулатур и нот


Django Reinhardt - Fleche D'or - таба, видео

Регистрация Запомнить меня
Войти через:  Facebook Google Twitter Vk Yandex Mail.ru

Django Reinhardt - Fleche D'or - таба, видео

Печатать
Просмотров: 177
----------------------9--------------------------12-10h12p10------------------
----------7-8-9-10-11-------------------7-8-9-10-------------11-9-------------
----6-7-9-------------------------6-7-9---------------------------------------
8-9---------------------------8-9---------------------------------------------
------------------------------------------------------------------------------
------------------------------------------------------------------------------


----------------------9------8h10p8--7h9p7---8h10p8---9h11p9---8h10p8---------
----------7-8-9-10-11------10-------9------10-------11-------10------10-12----
----6-7-9---------------------------------------------------------------------
8-9---------------------------------------------------------------------------
------------------------------------------------------------------------------
------------------------------------------------------------------------------


----------------------9--------------------------12-10h12p10------------------
----------7-8-9-10-11-------------------7-8-9-10-------------11-9-------------
----6-7-9-------------------------6-7-9---------------------------------------
8-9---------------------------8-9---------------------------------------------
------------------------------------------------------------------------------
------------------------------------------------------------------------------


----------------------9------8h10p8--7h9p7---8h10p8---9h11p9---10h12p10-------
----------7-8-9-10-11------10-------9------10-------11-------12--------12--
----6-7-9---------------------------------------------------------------------
8-9---------------------------------------------------------------------------
------------------------------------------------------------------------------
------------------------------------------------------------------------------



chords:
Bm  |F#7  |Bm  |F#7  |Bm  |F#7  |Bm  |Bm
This is the "A" section to this fast phreaky ass gypsy blues.  Except for the triplets, those are all eighth notes. It would be a severe pain in my ass to describe the rhythm in this format, so go to cdnow.com and listen to the tune.   The "B" section is just E9 with some chromatically descending hits (ie G7 F#7 F7).  I have transcribed the solo but am far too lazy to write it all here now.

any questions?  monkeywheet@yahoo.com
Добавлено: 06.04.2012
Другие материалы по этой песне:
  • Аккорды и текст

Страница создана 06.04.2012
http://primanota.ru/django-reinhardt/fleche-dor-chords.htm
Привет, Гость.
Предлагаем пройти революционный курс по гитаре.
Подарок от PrimaNota.Ru, забирай!