PrimaNota.ru - самый крупный в мире бесплатный архив песенных текстов, аккордов, табулатур и нот


Django Reinhardt - Anniversary Song - таба, видео

Регистрация Запомнить меня
Войти через:  Facebook Google Twitter Vk Yandex Mail.ru

Django Reinhardt - Anniversary Song - таба, видео

Печатать
Просмотров: 111
Авторы музыки: Al Jolson, Saul Chaplin, Iosif Ivanovici

-------------------------------------------------------------------------------
                             ANNIVERSARY SONG - Django Reinhardt
-------------------------------------------------------------------------------
Tabbed by: Saitenstechen
E-mail: 1993lorenz@web.de

Tuning: EADGBe

This is loosely based on a recording from 1947 (clarinet, guitar, bass). 
The tune itself is an excerpt from Ivanonicis "Waves of the Danube" (1889!).

A:
 
let ring throughout ----->
   E7                                                   Am
E|--------|-----------------|--------|-----------------|--------|-----------------|
B|--------|-----------------|-0------|(0)--------------|-1------|(1)----0---------|
G|--------|-------1----2----|--------|-------1---------|--------|------------2----|
D|-2------|(2)--------------|--------|------------2----|--------|-----------------|
A|--------|-----------------|--------|-----------------|--------|-----------------|
E|--------|-----------------|--------|-----------------|--------|-----------------|
            
            A7                Dm                         Am
E|-0------|(0)---------0----|-1------|(1)----0---------|-0------|-----------------|
B|--------|-----------------|--------|------------3----|--------|(5)----3----1----|
G|--------|-----------------|--------|-----------------|--------|-----------------|
D|--------|-----------------|--------|-----------------|--------|-----------------|
A|--------|-----------------|--------|-----------------|--------|-----------------|
E|--------|-----------------|--------|-----------------|--------|-----------------|

   E7                         Am
E|--------|-----------------|--------|--------|
B|-0------|(0)----3----1----|--------|--------|
G|--------|-----------------|-2------|(2)-----|        repeat as
D|--------|-----------------|--------|--------|         desired
A|--------|-----------------|--------|--------|
E|--------|-----------------|--------|--------|


B:

   Dm                G7                C
E|-5-----5----5----|-5-----5----5----|-5-----3----2---3---|-3---------------|
B|-----------------|-----------------|--------------------|-----------------|
G|-----------------|-----------------|--------------------|-----------------|
D|-----------------|-----------------|--------------------|-----------------|
A|-----------------|-----------------|--------------------|-----------------|
E|-----------------|-----------------|--------------------|-----------------|

   Dm                G7                C
E|-1-----1----1----|-1-----1----1----|-1-----0------------|-----------------|
B|-----------------|-----------------|------------4---5---|-5----------5----|
G|-----------------|-----------------|--------------------|-----------------|
D|-----------------|-----------------|--------------------|-----------------|
A|-----------------|-----------------|--------------------|-----------------|
E|-----------------|-----------------|--------------------|-----------------|

   E7                                  Am
E|-----------------|-----------------|--------------------|------------5----|
B|-3-----3----3----|-3-----3----3----|-3-----1----0-------|-----------------|
G|-----------------|-----------------|----------------2---|-2---------------|
D|-----------------|-----------------|--------------------|-----------------|
A|-----------------|-----------------|--------------------|-----------------|
E|-----------------|-----------------|--------------------|-----------------|

   Dm                E7                Am
E|-1---------------|-----------------|--------------------|-----------------|
B|-------3----0----|-1-------0-------|--------------------|-----------------|
G|-----------------|-----------------|-2------------------|-----------------|
D|-----------------|-----------------|--------------------|-----------------|
A|-----------------|-----------------|--------------------|-----------------|
E|-----------------|-----------------|--------------------|-----------------|

I'm open to corrections and improvements.
______________________________________________________________________________________________________

Notes: 
If you want to play in a Gypsy Jazz style, try these voicings:
        E7  0767xx              Am6 5x455x              A7 5x565x
        Dm6 x5x767      or      Dm9 x5355x,     and     C6 8x798x.

You could also add in addional chords like this (A):
        E7 / F7 E7 | E7 / / / | E7 / Eb7 E7 | E7 / / / |
        ...
or at in the last bar of each part: 
        Am6 5x455x Cm6 8x788x Bdim x5656x F7 x8786x.

Have fun.
Добавлено: 23.10.2015
Вам также может быть интересно:
Другие материалы по этой песне:
  • Аккорды и текст

Страница создана 23.10.2015
http://primanota.ru/django-reinhardt/anniversary-song-chords.htm
Привет, Гость.
Предлагаем пройти революционный курс по гитаре.
Подарок от PrimaNota.Ru, забирай!