PrimaNota.ru - самый крупный в мире бесплатный архив песенных текстов, аккордов, табулатур и нот


Divlje Jagode - Let Na Drugi Svijet - таба, видео

Регистрация Запомнить меня
Войти через:  Facebook Google Twitter Vk Yandex Mail.ru

Divlje Jagode - Let Na Drugi Svijet - таба, видео

Печатать
Просмотров: 153
divlje jagode :: let na drugi svijet
Transkripcija: andreyx
Home         : ex-yu-rokeri.tk


Uvod
E---------------------------------|
H---------------------------------|
G------------4--------------------|
D--4-4-7-4-4-4-4-4-7-4-4-4-7-6-7--|
A--4-4-7-4-4---4-4-7-4-4-4-7-6-7--|
E---------------------------------|
                                          4x
E---------------------------------|
H---------------------------------|
G------------4--------------------|
D--4-4-7-4-4-4-4-4-7-4-4-7-6-4----|
A--4-4-7-4-4---4-4-7-4-4-7-6-4-7--|
E------------------------------7--|

Ovaj uvod se svira ovako: Postavite kaziprst na 4. prag kao
barre. Sa njim pokrijte 5 zica a sa spojenim malim i domalim
svirate ostalo.


F5        E5     F#5
Opet neki glas u noci
Fis5         E5    F#5
Crni jastuk, plavi snovi
A5            E5    F#5
Divlji konji mjesec vuku
A5         E5   F#5
Stopu neku baca sjaj.

Refren:
F#m    A E F#m  F#m E    F#m
Dijele seeee ,  karte za raj
F#m,    A E F#m
U dva i peeeeeeet
F#m    E     F#m
Let na drugi svijet.

Refren jos jednom ponovite samo sa rifovima
i na kraju njega kazete ‘hej'
Uvod 2x

Iznad grada lete strasni snovi
Djeca u snu broje zvijezde
Zvonik pao sa vrh tornja
Sat je stao, al' nije kraj.

Refren:

Dijele se karte za raj...

I ovde ref svirate isto jednom akordima,i jednom rifovima.

Solo 1
E—-12/14b-14b-14b-12/14b-14b-14b-12/14b-14b-14b-12/14b-14b-14b--|
H---------------------------------------------------------------|
G---------------------------------------------------------------|
D---------------------------------------------------------------|
A---------------------------------------------------------------|
E---------------------------------------------------------------|

E—-12/14b-14b-14b-12b-~~~--19b-\17—-17b-17b---------------------|
H---------------------------------19--------17b-~~~-\-----------|
G-----------------------------------------------------4b-~~~-\--|
D-----------------------------------------------------4b-~~~----|
A---------------------------------------------------------------|
E---------------------------------------------------------------|

E---------------------------------------------------------------|
H------10-------10-----12--10------12--10------12--10-----------|
G--11b----11--9----11----------11----------11----------11—-11b--|
D---------------------------------------------------------------|
A---------------------------------------------------------------|
E---------------------------------------------------------------|

E-----------------------------------------------------------|
H-----------------------------------------------------------|
G--11----9------9-----------10--9------10--9-----10--9------|
D-----11---11-9---9-----11---------11--------11---------11--|
A------------------12-\-------------------------------------|
E-----------------------------------------------------------|

E------------------------------|
H--10--9------10--9------------|
G---------11--------9—-11b-~~--|
D------------------------------|
A------------------------------|
E------------------------------|


Ref: 2x

Kod Sola 2, slicno kao u uvodu postavite kaziprst, samo na 9 pragu.
Pokrijte 3 donje zice

Solo 2
E-------------------------------------------------------------|
H-----9-10-10-10-10-9-9---------------------------------------|
G--11------------------9-11-11-11-11-11-11-11-11-11-11-11-11--|
D-------------------------------------------------------------|
A-------------------------------------------------------------|
E-------------------------------------------------------------|

E----------------------------------------------------|
H--10-9-9----------------------9-9-10-10-10-10-9-9---|
G--------9-11-11-11-11-11-11-11-------------------9--|
D----------------------------------------------------|
A----------------------------------------------------|
E----------------------------------------------------|

E---------------------------------------|
H---------------------------------------|
G--11-11-11-11-11-11-11-11-11-11-11-11--|
D---------------------------------------|
A---------------------------------------|
E---------------------------------------|

--------------------------------|
--10-9-9------------------------|
--------9-11-11-11-11-11-11-11--|
--------------------------------|
--------------------------------|
--------------------------------|

Ref: 2x

1. strofa

Poslje svakog stiha Gitara 2 svira

E---------------------------------|
H---------------------------------|
G--4-----4-----4-----4-----4------|
D--4-4-4-4-4-4-4-4-4-4-4-4-4-4-4--|
A----4-4---4-4---4-4---4-4---4-4--|
E---------------------------------|

a Gitara 1 svira pa se ukljucuje posle 2. stiha

posle 2.stiha          posle 3.stiha

E--------------------- ------------------14b—12b-\--|
H--10-9----10-9------- --9/10-9---10-9--------------|
G-------11-----11----- --------11-----11------------|
D-----------------7-6- -----------------------------|
A--------------------- -----------------------------|
E--------------------- -----------------------------|

2. strofa

E------------------------------------------------------|
H—-7h9h10-7h9h10-7h9h10-7h9h10-7h9h10-7h9h10-7h9h10-7--|
G------------------------------------------------------|
D------------------------------------------------------|
A------------------------------------------------------|
E------------------------------------------------------|
Добавлено: 12.07.2012
Другие материалы по этой песне:
  • Аккорды и текст

Страница создана 12.07.2012
http://primanota.ru/divlje-jagode/let-na-drugi-svijet-chords.htm
Привет, Гость.
Предлагаем пройти революционный курс по гитаре.
Подарок от PrimaNota.Ru, забирай!