PrimaNota.ru - самый крупный в мире бесплатный архив песенных текстов, аккордов, табулатур и нот


Divlje Jagode - Da Li Si Ikada Mene Voljela - аккорды и текст, видео

Регистрация Запомнить меня
Войти через:  Facebook Google Twitter Vk Yandex Mail.ru

Divlje Jagode - Da Li Si Ikada Mene Voljela - аккорды и текст, видео

Печатать
Просмотров: 132
Da Li Si Ikada Mene Voljela
Divlje Jagode
Divlje Jagode
Da Li Si Ikada Mene Voljela


                    G     Am
Kada dodje s brijegova
     C           Em    D
miris ranih snijegova
                  C    D
meni na um padnes ti,
                    C
pa se pitam sta nam bi
           G
eh sta nam bi
         D   C-D  Em
od ljubavi

               G   Am
Da li ti se ikada
   C           Em      D
suza za mnom omakla
                  C      D
nepozvanog u svom snu
                  C
nadjes li me koji put


         G  D      C-D       Em  Am
I da li si ikada mene voljela
          Em  Am          Em  Am
dal' si ikada mene voljela

                 G    Am
Mozda nas je zavela
       C          Em   D
igra bijelih pahulja
                  C    D
kunem prste sudbine
                  C
jer sve osta pitanje

         G  D      C-D       Em  Am
I da li si ikada mene voljela
          Em  Am          Em  Am
dal' si ikada mene voljela

|-------------------------------------------------------------------|
|-----------12-13-12-----12--------------12-------------------------|
|---11-12-14-----------14--14-12-14----14--12---11-12-14------------|
|-14----------------------------------------------------14----------|
|-------------------------------------------------------------------|
|-------------------------------------------------------------------|

|---------------------------------------------12--------------------|
|--15-15---13-12--13---12----------12-13-15-----15-13----12--13-----|
|---------------14-------12---12-14------------------------14-------|
|-------------------------------------------------------------------|
|-------------------------------------------------------------------|
|-------------------------------------------------------------------|

|-------------------------------------------------------------------|
|-----------12---13-12----------------------------------------------|
|------12-14----------14-12---11-12-15-11-----12-11--------11-12----|
|-12-14----------------------------------12--------14-12-14-----14--|
|-------------------------------------------------------------------|
|-------------------------------------------------------------------|
Добавлено: 15.08.2013
Другие материалы по этой песне:
  • Аккорды и текст

Страница создана 06.07.2013
http://primanota.ru/divlje-jagode/da-li-si-ikada-mene-voljela-chords.htm
Привет, Гость.
Предлагаем пройти революционный курс по гитаре.
Подарок от PrimaNota.Ru, забирай!