PrimaNota.ru - самый крупный в мире бесплатный архив песенных текстов, аккордов, табулатур и нот


Distemper - Подарок медиков - аккорды и текст, видео

Регистрация Запомнить меня
Войти через:  Facebook Google Twitter Vk Yandex Mail.ru

Distemper - Подарок медиков - аккорды и текст, видео

Печатать
Просмотров: 390
Подарок медиков
Distemper
Am             F
Ты заразился спидом
C                G
От непромытого шприца,
   Dm                   Am
В грязной и старой больнице,
   F                 G
В центре родной столицы.

Am                  F
Ты сходишь с ума и мысль одна
Dm                 F
Тебя не отпускает не на миг.
Dm                  G
Что смерть так близка,
   C       F     G         C               
А ты ведь еще совсем не старик.

Не был ты в группе риска,
Где спид возникает часто,
Лучше б ты был педерастом,
Все равно жизнь прошла напрасно.

Забудь про футбол,
Один лишь укол
Перечеркнул стремленья 
Многих лет.

Не бойся зеркал,
Привыкни, что стал
Ты мерзкий скелет.

Ты никому не нужен
В грязных, больничных стенах,
Поздно ты местью разбужен,
Ошибка природы в генах.

Ты правильно жил,
Ты много не пил,
Но, что судьба дала тебе взамен.

Холодную сталь
И липкую кровь
С порезанных вен.

Riff 1

e------------------------------------------------------------|
h------------------------------------------------------------|
g------------------------------------------------------------|
d--12-12--12-5-5--------------7-7--3-3--3-5-5----------------|
a--12-12--12-5-5--------------7-7--3-3--3-5-5----------------|
E--10-10--10-3-3--7-8-8-8-8-7-5-5--1-1--1-3-3--7-8-8-8-7-10-8|

Riff 2

e-----------------------------------------------------------
h-----------------------------------------------------------
g-----------------------------------------------------------
d--7-7--7-7-7--7-10-10--10-12-10--5-5--5-5-5--5-9-9--9-10-9-
a--7-7--7-7-7--7-10-10--10-12-10--5-5--5-5-5--5-9-9--9-10-9-
E--5-5--5-5-5--5-8--8---8--10-8---3-3--3-3-3--3-7-7--7-9--7-


e-----------------------------------------------------------|
h-----------------------------------------------------------|
g-----------------------------------------------------------|
d--7-7--7-7-7--7-10-10--10-12-10--3-3--3-3-3--3-3--3-3-3-3--|
a--7-7--7-7-7--7-10-10--10-12-10--3-3--3-3-3--3-3--3-3-3-3--|
E--5-5--5-5-5--5-8--8---8--10-8---1-1--1-1-1--3-3--3-3-3-3--|

Riff 3

e---------------------------------------
h-----------------------------------5-5-
g--5-5-5-4-5-6/7-5-5--5-5-5-4-5-6/7-----  3 раза
d---------------------------------------
a---------------------------------------
E---------------------------------------

e---------------------------------------
h----------------5-5--------------------
g--5-5-5-4-5-6/7-----7-5-----------4/5--
d---------------------------------------
a---------------------------------------
E---------------------------------------
Добавлено: 10.04.2012
Другие материалы по этой песне:
  • Аккорды и текст

Страница создана 10.04.2012
http://primanota.ru/distemper/podarok-medikov-chords.htm
Привет, Гость.
Предлагаем пройти революционный курс по гитаре.
Подарок от PrimaNota.Ru, забирай!