PrimaNota.ru - самый крупный в мире бесплатный архив песенных текстов, аккордов, табулатур и нот


Dionisio Aguado - Andante In D - таба, видео

Регистрация Запомнить меня
Войти через:  Facebook Google Twitter Vk Yandex Mail.ru

Dionisio Aguado - Andante In D - таба, видео

Печатать
Просмотров: 188
contact at: benn913@gmail.com if you have any questions
Standard Tuning


 |  | | | |  | | | |  |  | | |  | |  | |  | | | |  | |.-| | |.-| 
---|--------|--------|---12----|12-------|--------|--------------|
---|-------7|-7------|-7------7|---------|-------7|-7------7----7|
---|-------7|-----5--|-7-------|---------|-------7|---3----------|
---|-5---5--|-3-----7|----7-5--|---7----7|-5---5--|-3----3---3---|
--5|---5----|-----3--|---------|-9---12--|---5----|--------------|
---|-4---4--|--------|------4-5|---------|-4---4--|--------------|

 | |  | |  | |  |     |  | | | |  | |  | |  | | | |  | |  | | 
-----12--|--------||---|--------|12-------|--------|---------|
---7-----|--------||---|-----7--|---------|-7------|-7-------|
-----12--|-------*||*--|-5---7--|---------|-----5--|-7-------|
-5-7-----|-5-----*||*-7|---7---7|---7----7|-3-7---7|---7----7|
-----12-9|---5----||---|-3------|-9---12--|-----3--|-----12--|
-4-------|-4---12-||---|--------|---------|--------|---------|

                      ___ _______  _______
 | | | |  | |  | |  | | | | | | |  | | | | | |  | | | |  | | |  |  
--------|-----12--|--------------|------------|--------|-------12|
-5---7--|---------|-7-5----------|------------|-------7|-7-------|
-5------|-5-------|-7-----5------|------------|-------7|-----5---|
---7-3-7|---7----7|-----3---4---5|---3-------7|-5---5--|-3------7|
--------|-3----9--|-----------3--|-4---3-4-5--|---5----|-----3---|
--------|---------|--------------|------------|-4---4--|---------|

 |  | | |  | |  | |  | | | |  | | | |   | |  |  |   |  | |
---12----|12---12--|--------|--------|-12--------|-12-------||
-7------7|---------|-------7|-7---7--|-12--------|----------||
-7------7|---------|-------7|-----7--|-12-5----12|-12------*||
----7-5--|---7--7-7|-5---5--|-3-----5|-----------|----12-5-*||
---------|-9----9--|---5----|-------5|------12--9|----------||
------4--|---------|-4---4--|---5---4|-----------|-12----4--||


| /   slide up
| \   slide down
| h   hammer-on
| p   pull-off
| ~   vibrato
| +   harmonic
| x   Mute note
| b   Bend
| pb  Pre-bend
| br  Bend release
| pbr Pre-bend release
| brb Bend release bend

Добавлено: 25.07.2012
Другие материалы по этой песне:
  • Аккорды и текст

Страница создана 13.06.2012
http://primanota.ru/dionisio-aguado/andante-in-d-chords.htm
Привет, Гость.
Предлагаем пройти революционный курс по гитаре.
Подарок от PrimaNota.Ru, забирай!