PrimaNota.ru - самый крупный в мире бесплатный архив песенных текстов, аккордов, табулатур и нот


Dio - All The Sailed Away - таба, видео

Регистрация Запомнить меня
Войти через:  Facebook Google Twitter Vk Yandex Mail.ru

Dio - All The Sailed Away - таба, видео

Печатать
Просмотров: 162
p.1   E: ----5------|
      B: --7---7----|
      G: 6----------|    10 times
      D: -----------|
      A: -----------|
      E: -----------|
p.2
      E: --------------|
      B: 4-----5-----6-|
      G: --4-----4-----|
      D: 6---6-6---6-6-|
      A: --------------|
      E: --------------|
p.3
      E: ----------|
      B: --------5-|
      G: ----6-----|
      D: --6---6---|
      A: 4---------|
      E:-----------|
p.4
      E: --------------|
      B: 4-----5-----6-|
      G: --4-----4-----|
      D: 6---6-6---6-6-|
      A: --------------|
      E: --------------|
p.5
      E:
      B:
      G:
      D: --2
      A: 0--
      E:
Добавлено: 31.03.2012
Другие материалы по этой песне:
  • Аккорды и текст

Страница создана 31.03.2012
http://primanota.ru/dio/all-the-sailed-away-chords.htm
Привет, Гость.
Предлагаем пройти революционный курс по гитаре.
Подарок от PrimaNota.Ru, забирай!