PrimaNota.ru - самый крупный в мире бесплатный архив песенных текстов, аккордов, табулатур и нот


Dinosaur Jr - They Always Come - текст песни, таба, видео

Регистрация Запомнить меня
Войти через:  Facebook Google Twitter Vk Yandex Mail.ru

Dinosaur Jr - They Always Come - текст песни, таба, видео

Печатать
Просмотров: 114
I have never been able to find a decent tab for this song.

Verse
-------------------------------------------------------|
-------------------------------------------------------|
-------------7-7-7-7-7-7-7-7-9-9-9-9-9-9-9-9-9-9-9-7-7-|
-5-5-5-5-5-7-7-7-7-7-7-7-7-9-9-9-9-9-9-9-9-9-9-9-7-7-7-|
-5-5-5-5-5-5-5-5-5-5-5-5-5-7-7-7-7-7-7-7-7-7-7-7-5-5-7-|
-3-3-3-3-3---------------------------------------------|

--------------------------------------------------|
--------------------------------------------------|
-xx-5-5-5-5-7-7-7-7-7-7---xx-5-5-5-5-7-7-7-7-7-7--|
-xx-5-5-5-5-7-7-7-7-7-7---xx-5-5-5-5-7-7-7-7-7-7--|
-xx-3-3-3-3-5-5-5-5-5-5---xx-3-3-3-3-5-5-5-5-5-5--|
--------------------------------------------------|

They Always Come In Twos....
---------------------------------|
---------------------------------|
-5-5-5-5-5-5-5-5-5-5-5-5-5-------|
-5-5-5-5-5-5-5-5-5-5-5-5-5-------|
-3-3-3-3-3-3-3-3-3-3-3-3-3-------|
---------------------------------|

Chorus
-----------------------------------|
-----------------------------------|
9-9-9-9-6-6-9-7-7-6-7-6-9/11-9-----|
-----------------------------------|
7-7-7-7-4-4-7-5-5-4-5-4-7/9--7-----|
-----------------------------------|

--------------------------------------|
----------------10-9------------------|
9-9-9-9-6-6-9------9-9-7p6-7p6--------|
--------------------------------------|
7-7-7-7-4-4-7-------------------------|
--------------------------------------|

Part After Chorus
------------------------------------|
--------7-7-7-7-7-7-----------------|
-5~----7-7-7-7-7-7------------------|
-5~----7-7-7-7-7-7------------------|
-3~----5-5-5-5-5-5------------------|
------------------------------------|

Pre solo (Work out strumming yourself)
---0----0----0----0----0----0------------------------------|
---0----0----0----0----0----0------------------------------|
---6----7----6----4----6----7p6p6--------------------------|
---7----7----7----7----7----7------------------------------|
---7----7----7----7----7----7------------------------------|
---0----0----0----0----0----0------------------------------|


Solo
-----------------------------------------------|
-17~~-17b-17-17b-17----------------------------|
-----------------------------------------------|
-----------------------------------------------|
---------------------12-14-16--12-17-16--17-16-|
-----------------------------------------------|

-------------------------------------------------------------------------|
-------------------------------------------------------------------------|
---------------------------------------------14-14-14-16b--16b16---16b---|
---------------------------------141414-1616---16-16---------------------|
-12-121212h14-1414/16-1616-171717----------------------------------------|
-------------------------------------------------------------------------|

-----------------------------------------------------------------------------|
-----------------------------------------------------------------------------|
----------------------------------1414---------------------------------------|
-------------------------1414-1616------1616-1414-1616-12-11-12---14b---14~~-|
-12-14-14-12-12-1616-1717----------------------------------------------------|
-----------------------------------------------------------------------------|

[b]Guitar1[/b]
Can't face the ...   Play each chord around 20 times.
-0-------0-------0----------------------|
-3-------0-------0----------------------|
-4-------7-------6----------------------|
-4-------7-------7----------------------|
-2-------5-------7----------------------|
-----------------5----------------------|

[b]Guitar2[/b]
Can't trace me...

----------------------------------------------------------------------------|
-------------17-17---17-17----17-17---17-17b 17-17b-17-17b-17-17b-17--------|
--14-14-14-------14--------14-------14--------------------------------------|
----------------------------------------------------------------------------|
----------------------------------------------------------------------------|
----------------------------------------------------------------------------|

repeat the chords and riff and then...(listen to song to get accurate timing)

-0-0-0-0-0-0----5-5-7-7-5-5--------------------|  x4
-0-0-0-0-0-0----5-5-5-5-5-5--------------------|
-0-0-0-0-6-6----7-7-5-5-7-7--------------------|
-7-9-9-9-7-7----7-7-7-7-7-7--------------------|
-7-7-7-7-7-7----5-5-5-5-5-5--------------------|
-5-5-5-5-5-5-----------------------------------|

End on this...
-----0~------------------------------|x5
-----0~------------------------------|
-----1~------------------------------|
-----2~------------------------------|
-----0~------------------------------|
-------------------------------------|

Hope this helps
Добавлено: 25.06.2012
Другие материалы по этой песне:
  • Аккорды и текст

Страница создана 01.06.2012
http://primanota.ru/dinosaur-jr/they-always-come-chords.htm
Привет, Гость.
Предлагаем пройти революционный курс по гитаре.
Подарок от PrimaNota.Ru, забирай!