PrimaNota.ru - самый крупный в мире бесплатный архив песенных текстов, аккордов, табулатур и нот


Dinosaur Jr - Pierce The Morning Rain - таба, видео

Регистрация Запомнить меня
Войти через:  Facebook Google Twitter Vk Yandex Mail.ru

Dinosaur Jr - Pierce The Morning Rain - таба, видео

Печатать
Просмотров: 100
PIERCE THE MORNING RAIN

Standard

Capo 7


e|----------------|---------------------|
B|----------------|---------------------|
G|----------------|---------------------|
D|----------------|---------------------|
A|-7-7-77-7777777-|--5555/9-5--5555/9-5-|
E|-5-5-05-0555055-|-03333/7-3-03333/7-3-|
             
                    P.M.---|   *
e|----------------|--------0-0-0-00-|
B|--2-222---3333--|--------0-0-0-00-|
D|--2-222---2222--|--------1-1-1-00-|
G|--2-222-0-0000--|-444444-2-2-2-22-|
A|-00-000-0-------|-444444-2-2-2-22-|
E|----------------|-22222200-0-0-00-|


e|---------------------|
B|-33333333-0020-00020-|
D|-22222222-2222-22222-|
G|-00000000-2222-22222-|
A|----------0000-00000-|
E|---------------------|


e|-----------------------|
B|-33333333-0020-0000000-|
D|-22222222-2222-1111111-|
G|-00000000-2222-2222222-|
A|----------0000-2222222-|
E|---------------0000000-|

         P.M.
e|---------------------|
B|---------------------|
D|---------------------|
G|-----------4-44-5-55-|
A|-4---4-444-2-22-3-33-|
E|-2-0-2-222-----------|


e|-----------------------|
B|-----------------------|
D|-----------------------|
G|4444444444/666777777777|
A|2222222222/444555555555|
E|-----------------------|
Добавлено: 28.02.2014
Другие материалы по этой песне:
  • Аккорды и текст

Страница создана 28.02.2014
http://primanota.ru/dinosaur-jr/pierce-the-morning-rain-chords.htm
Привет, Гость.
Предлагаем пройти революционный курс по гитаре.
Подарок от PrimaNota.Ru, забирай!