PrimaNota.ru - самый крупный в мире бесплатный архив песенных текстов, аккордов, табулатур и нот


Dimmu Borgir - Devil's Path - текст песни, таба, видео

Регистрация Запомнить меня
Войти через:  Facebook Google Twitter Vk Yandex Mail.ru

Dimmu Borgir - Devil's Path - текст песни, таба, видео

Печатать
Просмотров: 154
Авторы музыки: Silenoz, Shagrath
Авторы текста: Shagrath
1. Master of Disharmony

e|-----------------------------------------|
B|-----------------------------------------|
G|-----------------------------------------|
D|---8---------------6--2------------------|
A|---8---------------6--2------------------|
E|---6---------------4--0------------------|

e|-----------------------------------------|
B|-----------------------------------------|
G|-----------------------------------------|
D|---8------------8-----2------------------|
A|---8---------------8--2------------------|
E|---6------------------0------------------|

e|-----------------------------------------|
B|-----------------------------------------|
G|-----------------------------------------|
D|---8---------------6--2------------------|
A|---8---------------6--2------------------|
E|---6---------------4--0------------------|

e|-----------------------------------------|
B|-----------------------------------------|
G|-----------------------------------------|
D|---8------------------2------------------|
A|---8------------------2------------------|
E|---6------------------0------------------|
(lyrics)Sons of Satan...  Gather for attack!

(1:34)Kinda quick. Use a very thin pick (I use 0.60mm) 
      and up- and downstroke the strings to do it the 
      Dimmu Borgir-way (saw 'em live).     4x
e|-------------------------------------------|
B|-------------------------------------------|
G|-------------------------------------------|
D|---888888888888888888222222222222222222----|
A|---888888888888888888222222222222222222----|
E|---666666666666666666000000000000000000----|
     (Shagrath (singer) screams a bit.)

(1:53)                                     4x
e|-------------------------------------------|
B|-------------------------------------------|
G|-------------------------------------------|
D|---8-88-8-88-8-8-8-8-2-22-2-22-2-2-2-2-----|
A|---8-88-8-88-8-8-8-8-2-22-2-22-2-2-2-2-----|
E|---6-66-6-66-6-6-6-6-0-00-0-00-0-0-0-0-----|
     Master of disharmony....

(2:11) Upper TAB (Guitar 1) is lead, lower TAB (Guitar 2) is rhythm       2x
e|-Guitar-1----------------------------|------------------------------------|
B|-------------------------------------|------------------------------------|
G|-------------------------------------|------------------------------------|
D|-9-10-12-15-14-----9-10-7--6---------|-9-10-12-15-14-----9-10-6--7--------|
A|------------------------------8--7---|------------------------------8--7--|
E|-------------------------------------|------------------------------------|
 |                                     |                                    |
e|-Guitar-2----------------------------|------------------------------------|
B|-------------------------------------|------------------------------------|
G|-------------------------------------|------------------------------------|
D|-7-------5-------7--------12-11-10---|-7-------5-------7--------10-12-11--|
A|-7-------5-------7--------12-11-10---|-7-------5-------7--------10-12-11--|
E|-5-------3-------5--------10--9--8---|-5-------3-------5---------8-10--9--|

(2:26)
e|-------------------------------------|------------------------------------|
B|-------------------------------------|------------------------------------|
G|-------------------------------------|------------------------------------|
D|-9-10-12-15-14-----9-10-7--6---------|-9-10-12-15-14-----9-10-6--7--------|
A|------------------------------8--7---|------------------------------8--7--|
E|-------------------------------------|------------------------------------|
 |                                     |                                    |
e|-Guitar-2-out------------------------|-Guitar-2-out-----------------------|
B|-------------------------------------|------------------------------------|
G|-------------------------------------|------------------------------------|
D|--------------------------12-11-10---|--------------------------10-12-11--|
A|--------------------------12-11-10---|--------------------------10-12-11--|
E|--------------------------10--9--8---|---------------------------8-10--9--|

(2:33)
e|-------------------------------------|------------------------------------|
B|-------------------------------------|------------------------------------|
G|-------------------------------------|------------------------------------|
D|-9-10-12-15-14-----9-10-7--6---------|-9-10-12-15-14-----9-10-6--7--------|
A|------------------------------8--7---|------------------------------8--7--|
E|-------------------------------------|------------------------------------|
 |                                     |                                    |
e|-------------------------------------|------------------------------------|
B|-------------------------------------|------------------------------------|
G|-------------------------------------|------------------------------------|
D|-7-------5-------7--------12-11-10---|-7-------5-------7--------10-12-11--|
A|-7-------5-------7--------12-11-10---|-7-------5-------7--------10-12-11--|
E|-5-------3-------5--------10--9--8---|-5-------3-------5---------8-10--9--|

Guitar 1 plays at (2:56)              ??x
e|---------------------------------------|
B|---------------------------------------|
G|---------------------------------------|
D|--------7--------7--------7--------7---|
A|-----7--------7--------7--------7------|
E|--5--------5--------5--------5---------|
PM |----|   |----|   |----|   |----|

(4:20) Guitar 1
e|-------------------------------------------|
B|-------------------------------------------|
G|---9--8------------------------------------|
D|---------9--11-----------------------------|
A|-------------------------------------------|
E|-------------------------------------------|

(4:22)                                                                   4x
e|------------------------------------|------------------------------------|
B|------------------------------------|------------------------------------|
G|-----------------------------12-11--|-----------------------------12-11--|
D|-9---------9------9----------12-11--|-7---------7------7----------12-11--|
A|-9---------9------9-----------------|-7---------7------7-----------------|
E|-7--7-7-7--7--7-7-7--7-7-7-7--------|-5--5-5-5--5--5-5-5--5-5-5-5--------|
PM   |-----|   |----| |-------|           |-----|   |---|  |-------|
Keep playing this during the solo. I guess I'm not good enough to figure out the solo, 
but if someone does have it, please mail it to me.

on (5:27) again this cool black riff:
e|-------------------------------------|------------------------------------|
B|-------------------------------------|------------------------------------|
G|-------------------------------------|------------------------------------|
D|-9-10-12-15-14-----9-10-7--6---------|-9-10-12-15-14-----9-10-6--7--------|
A|------------------------------8--7---|------------------------------8--7--|
E|-------------------------------------|------------------------------------|
 |                                     |                                    |
e|-------------------------------------|------------------------------------|
B|-------------------------------------|------------------------------------|
G|-------------------------------------|------------------------------------|
D|-7-----------------5-----------------|-7-----------------5-------7--8--5--|
A|-7-----------------5-----------------|-7-----------------5-------7--8--5--|
E|-5-----------------3-----------------|-5-----------------3-------5--6--3--|

(5:33) Guitar 1 out                                                       2x
e|-------------------------------------|------------------------------------|
B|-------------------------------------|------------------------------------|
G|-------------------------------------|------------------------------------|
D|-7--7-7--5--5-5--7--7-7---12-11-10---|-7--7-7--5--5-5--7--7-7---10-12-11--|
A|-7--7-7--5--5-5--7--7-7---12-11-10---|-7--7-7--5--5-5--7--7-7---10-12-11--|
E|-5--5-5--3--3-3--5--5-5---10--9--8---|-5--5-5--3--3-3--5--5-5----8-10--9--|
 
(5:47)                                          2x (second time, look below)
e|-------------------------------------|------------------------------------|
B|-------------------------------------|------------------------------------|
G|-------------------------------------|------------------------------------|
D|-9-10-12-15-14-----9-10-7--6---------|-9-10-12-15-14-----9-10-6--7--------|
A|------------------------------8--7---|------------------------------8--7--|
E|-------------------------------------|------------------------------------|
 |                                     |                                    |
e|-------------------------------------|------------------------------------|
B|-------------------------------------|------------------------------------|
G|-------------------------------------|------------------------------------|
D|-7--7-7--5--5-5--7--7-7---12-11-10---|-7--7-7--5--5-5--7--7-7---10-12-11--|
A|-7--7-7--5--5-5--7--7-7---12-11-10---|-7--7-7--5--5-5--7--7-7---10-12-11--|
E|-5--5-5--3--3-3--5--5-5---10--9--8---|-5--5-5--3--3-3--5--5-5----8-10--9--|

and the final chords at (6:01). Instead of the last three chords above, play 
the second time:
e|-----------------|
B|-----------------|
G|-----------------|
D|--7--8--5--4-----|
A|--7--8--5--4-----|
E|--5--6--3--2-----|



2. Devil's Path

e|------------------------------------|
B|------------------------------------|
G|o----------------------------------o|
D|o-222222222222222210---9---9-7-6---o|
A|--0000000000000000------------------|
E|------------------------------------|
Vocals enter 3th time:
Never shall the sun kiss my face
And caress me with it's burning light
For I dwell in the shadows
And sleep side by side with death

In dark desire I embrace the whore
Giving her an escape from an unworthly life
For with the appearance of a fallen angel

(1:00) Riff 2 w/tremolo picking                               1__________|2, 3, 4___|
     1 e 2 e 3 e 4 e 1 e 2 e 3 e 4 e 1 e 2 e 3 e 4 e 1 e 2 e | 3 e 4 e   | 3 e 4 e
e|-----------------------------------------------------------|-----------|----------||-----|
B|-----------------------------------------------------------|-----------|----------||-----|
G|o----------------------------------------------------------|----------o|---------o||-----|
D|o----------------------------------------------------------|----------o|---------o||-----|
A|---10------7-------9---10--9---7---10------7-------9-------|-14121415--|-10--12---||-12~-|
E|-----------------------------------------------------------|-----------|----------||-----|
I serve darkness

(1:36) Riff 3. Maybe you have to detune to D to play this riff good (the first chord in this riff
is a D) but this also sounds good (play 8 times):
e|------------------------------|
B|------------------------------|
G|o----------------------------o|
D|o-7---7-5-7----3-5----10-7---o|
A|--5---5-5-7----3-5----10-7----|
E|--5---5-3-5----1-3-----8-5----|
    <     < <      <       <
I am a prince among the damned
As I've been for an eternity
The monark in a dark paradise
Cursed by life and the living


(2:07) Variation on riff 2 w/tremolo picking                  1__________|2_________|
     1 e 2 e 3 e 4 e 1 e 2 e 3 e 4 e 1 e 2 e 3 e 4 e 1 e 2 e | 3 e 4 e   | 3 e 4 e
e|-----------------------------------------------------------|-----------|----------|
B|-----------------------------------------------------------|-----------|----------|
G|o----------------------------------------------------------|----------o|---------o|
D|o----------------------------------------------------------|----------o|---------o|
A|---10------7-------9---10--9---7---10------7-------9-------|-14121415--|-10--12---|
E|-----------------------------------------------------------|-----------|----------|
I serve darkness

(2:23) Kickass riff 3.                              |Tremolo pick from here
    1 2 3 4 1 2 3 4 1 2 3 4 1 2 3 4 1 2 3 4 1 2 3 4 1 2 3 4
e|------------------------------------------------------------|
B|------------------------------------------------------------|
G|o-2-------5-------9-------12------7-------5----------------o|
D|o-2-------5-------9-------12------7-------5-------9-791097-o|
A|--0-------3-------7-------10------5-------3-------7-578-75--|
E|------------------------------------------------------------|
Oh tremble not my immortal heart
Trough you beat in the shadows of death
Eternal life is the blessing
And I shall rule for another thousand years

(3:06) Riff 4
e|-------------------------------------------------------------------------------
B|-------------------------------------------------------------------------------
G|-------------------------------------------------------------------------------
D|-2-------5-----------------------------/7~-5757-5~--5\-2-2/-10-9-7-9-10--9--7--
A|-0-------3-------5-3-2-0-/7-5-3-2-0--------------------------------------------
E|------------------------------------3------------------------------------------

  -------------------------------------------------------------------------------|
  -------------------------------------------------------------------------------|
  -------------------------------------------------------------------------------|
  -2-------5-----------------------------/7~-7-77-5~--5\-2-2/-10-9-7-9-10--9--7--|
  -0-------3-------5-3-2-0-/7-5-3-2-0--------------------------------------------|
  ------------------------------------3------------------------------------------|

(3:27) Riff 1, 4 times w/vocals:
Never shall the sun kiss my face
And caress me with it's burning light
For I dwell in the shadows
And sleep side by side with death

(4:00) Riff 5 w/tremolo picking, play 6 times
    1 e 2 e 3 e 4 e 1 e 2 e 3 e 4 e
e|------------------------------------||---|
B|------------------------------------||---|
G|o----------------------------------o||---|
D|o---------12--------------12--11---o||---|
A|--9-----1210------9-----1210---912--||-9-|
E|--7-----10--------7-----10------10--||-7-|

I am a prince among the damned
As I've been for an eternity
The monark in a dark paradise
Cursed by life and the living

(4:31) Solo.... Maybe there are some little mistakes. It's was real bitch to transcribe
so don't fuck. Rhythm during solo: E5 C5 D5 (tremolo picked).
e|--------------------------------------------------------------------
B|--------------------------------------------------------------------
G|--14~---14~---13----------------------------------------------------
D|------------------14---12-10-12-14-12-10-7~----7-9-10~--10-12-10----
A|--------------------------------------------------------------------
E|--------------------------------------------------------------------

e|------------------------------------------------------------------------------------
B|------------------------------------------------------------------------------------
G|-------------------17-17-16-14------------------------------------------------------
D|---12/14-14-14/17---------------17-15-14-12\10-9-7~-----/14-12-10-9-6-7~--7-7-9-10--
A|------------------------------------------------------------------------------------
E|------------------------------------------------------------------------------------

e|---------------------------|
B|---------------------------|
G|--/14-12-10-9--------------|
D|---------------9-6-7-------|
A|---------------------------|
E|---------------------------|

(5:13) Outro w/right hand tapping (not sure about this)
e|-t12p8p5-t12p8p5-t12p8p5-t12p8p5-t13p8p5-t13p8p5-t13p8p5-t13p8p5---
B|-------------------------------------------------------------------

e|-t12p7p5-t12p7p5-t12p7p5-t12p7p5-t10p7p5-t10p7p5-t10p7p5-t10p7p5---
B|-------------------------------------------------------------------

e|-t12p8p5-t12p8p5-t12p8p5-t12p8p5-t13p8p5-t13p8p5-t13p8p5-t13p8p5---
B|-------------------------------------------------------------------

e|-t12p7p5-t12p7p5-t12p7p5-t12p7p5-5h7~------------------------------
B|-------------------------------------------------------------------




3. Nocturnal fear

Starts with feedback
Riff1 (0:00)
E---------------|
B---------------|
G---------------|
D---------------|
A--5h4-5h4-5----|
E------------6--|



Riff2 (0:07)
E-----------------------------------|
B-----------------------------------|
G--8-8-8-8-8-8-8-8-8-8-8-8-6-6-6-6--|
D--8-8-8-8-8-8-8-8-8-8-8-8-6-6-6-6--|
A--6-6-6-6-6-6-6-6-6-6-6-6-4-4-4-4--|
E-----------------------------------|

Riff3 (0:17)
E-------------------|
B-------------------|
G-------------------|
D--6-6-6-6-7-7-7-7--|
A--6-6-6-6-7-7-7-7--|
E--4-4-4-4-5-5-5-5--|


Riff4 (0:22)
E-------------------|
B-------------------|
G-------------------|
D--3-3-3-3-4-4-4-4--|
A--3-3-3-3-4-4-4-4--|
E--1-1-1-1-2-2-2-2--|

Riff5 (0:57)
E-------------------------------|
B-------------------------------|
G------------------------7-6-7--|
D------------------------7-6-7--|
A------------------------5-4-5--|
E--0-0-3-0-0-3-0-0-3-0-0--------|

Riff6 (1:08)
E-----------------------------------|
B-----------------------------------|
G------------------4-4-4-4-4-4-4-4--|
D------------------4-4-4-4-4-4-4-4--|
A------------------2-2-2-2-2-2-2-2--|
E--0-0-0-0-0-0-0-0------------------|

Riff7 (1:28)
E-------------------------------------|
B-------------------------------------|
G------------------4-4-4-5-5-5-6-6-6--|
D------------------4-4-4-5-5-5-6-6-6--|
A------------------2-2-2-3-3-3-4-4-4--|
E--0h2-2-2-2-2-2-2--------------------|

Ending (3:12)
E--------------------|
B--------------------|
G--------------------|
D--5--------2--------|
A--5--------2--------|
E--3--------0--------|


Order of Riffs
Riff1 x4
Riff2 x4
Riff3 x4
Riff4 x4
Riff1 x4
Riff2 x4
Riff3 x4
Riff4 x4
Riff1 x4
Riff5 x4
Riff6 x4
Riff5 x4
Riff7 x4
Riff5 x4
Riff1 x4
Riff2 x4
Riff3 x4
Riff4 x4
Riff5 x4
Riff1 x4
Riff2 x4
Riff3 x4
Riff4 x4
Riff5 x4
Ending x1

That's it!
Добавлено: 26.10.2013
Другие материалы по этой песне:
  • Аккорды и текст

Страница создана 30.07.2012
http://primanota.ru/dimmu-borgir/devils-path-chords.htm
Привет, Гость.
Предлагаем пройти революционный курс по гитаре.
Подарок от PrimaNota.Ru, забирай!