PrimaNota.ru - самый крупный в мире бесплатный архив песенных текстов, аккордов, табулатур и нот


Dimmu Borgir - Det Nye Riket - аккорды и текст, таба, видео

Регистрация Запомнить меня
Войти через:  Facebook Google Twitter Vk Yandex Mail.ru

Dimmu Borgir - Det Nye Riket - аккорды и текст, таба, видео

Печатать
Просмотров: 202
Авторы музыки: Silenoz, Shagrath

Det Nye Riket
Dimmu Borgir
    Keyboards (string soft) arranged for guitar:

                                                                  
e------------|
B||-------3--------------|-------3----3----------|
G||--2-------------2--0--|--2--------------2--0--|
D||--3-------------------|--2--------------------|
A||--5-------------------|--3--------------------|
E------------|


                                                                     
------------0-------------------------------|
-------3-----------3-------------|-------3--------------|
--2-------------------|--2--------------0----|--2-------------2--0--|
--0-------------------|--3----2----3---------|--3-------------------|
--1-------------------|--5-------------------|--5-------------------|
--------------------------------------------|


                                                                      
--------------------0---0--------------------|
-------3----3----3-----|-------3-----------3-------------|
--2--------------2--0--|--2-------------------|--2----0--------------|
--2--------------------|--0-------------------|--3---------2----3----|
--3--------------------|--1-------------------|--5-------------------|
---------------------------------------------|


                                                                      
---------------------------------------------|
-------3--------------|-------3----3----------|-------3----3------3--|
--2-------------2--0--|--2--------------2--0--|--2-------------------|
--3-------------------|--2--------------------|--0-------------------|
--5-------------------|--3--------------------|--1-------------------|
---------------------------------------------|


                                                                      
---------------------------------------------|
----------------------|-------3--------------|-------3----3----------|
--2--------------0----|--2-------------2--0--|--2--------------2--0--|
--3----2----3---------|--3-------------------|--2--------------------|
--5-------------------|--5-------------------|--3--------------------|
---------------------------------------------|


                                                                     
------------0--------------------|--1----1----3----5----|
-------3-----------3-------------|--3----3----5----6----|
--2-------------------|--2--------------0----|--2-------------------|
--0-------------------|--3----2----3---------|--0-------------------|
--1-------------------|--5------------------------------|
--------------------------------------------|


                                                                     
-------0----1----3----|-------1----3----5----|--0----5----7----4----|
-------1----3----5----|-------3----5----6----|--9-------------------|
--2-------------------|--2------------------------------|
--------------------------------------------|
--3-------------------|--1-------------------|--7-------------------|
---------------------------------|--0-------------------|


                                                                     
-------1----3----5----|-------0----1----3----|-------1----3----5----|
-------3----5----6----|-------1----3----5----|-------3----5----6----|
--2-------------------|--2-------------------|--2-------------------|
--0-----------------------------------------|
----------------------|--3-------------------|--1-------------------|
--------------------------------------------|


                                                                     
--0----5----7----4----|-------1----3----5----|-------1----3----5----|
--9-------------------|-------3----5----6----|-------3----5----6----|
----------------------|--2-------------------|--2-------------------|
----------------------|--0------------------------------|
--7------------------------------|--3-------------------|
--0-----------------------------------------|


                                                                     
------------0----5----|--0----5----7----4----|-------1----3----5----|
-------6----8----6----|--9-------------------|-------3----5----6----|
-------7-------------------------|--2-------------------|
--7------------------------------|--0-------------------|
----------------------|--7------------------------------|
--6-------------------|--0------------------------------|


                                                                     
-------1----3----5-----0----5----|--0----5----7----4----|
-------3----5----6----|-------6----8----6----|--9-------------------|
--2-------------------|-------7-------------------------|
----------------------|--7------------------------------|
--3------------------------------|--7-------------------|
----------------------|--6-------------------|--0-------------------|


                                                                           
-----------------------------------0---------|      |
-------3--------------|-------3----3----------|-------3-----------3--|      |
--2-------------2--0--|--2--------------2--0--|--2-------------------|      |
--3-------------------|--2--------------------|--0-------------------|      |
--5-------------------|--3--------------------|--1-------------------|      |
---------------------------------------------|      |
                                                                                  Fade
                                                                            /      out
----------------------||                                                    |
----------------------||                                                    |
--2--------------0----||                                                    |
--3----2----3---------||                                                    |
--5-------------------||                                                    |
----------------------||                                                    |
                                                                           /

                                                                             
Keyboards (piano) arranged for guitar:
                                                                 
e||--5--------0--------1-----|                               |
B----|                               |
G|------2-----2--|                               |
D||--------7-----0-----------|                               |
A||-----5--------------------|                               |
E----|                               |
                                                                Fade in
                                                             /     
                                                             |
--------1--------1--------|--0-----------0-----0--1--|       |
--------------------------|--------2--3--------------|       | 
-----2--------2--------2--------2--------|       |
-----------------------------------------|       |
--1--------1--------1-----|--0-----------4-----------|       |
-----------------------------------------|       |
                                                            /

                                                            
|---------1--------1--------|--5--------0--------1-----|     
-------------------------------|     
|*-----2--------2--------2--|--------2--------2-----2--|     
|*--0--------0--------0-----|-----0--------0-----------|     
-------------------------------|     
-------------------------------|     
                                                            
                                                             
                                                             
--------1--------1--------|--0-----------0-----0--1---||     
--------------------------|--------2--3---------------||     
-----2--------2--------2--------2--------*||     
-----------------------------------------*||     
--1--------1--------1-----|--0-----------4------------||     
------------------------------------------||     


 Lyrics:

             Vеrт hat skal vinne.
             Vеr ondskap skal gro.
             Е feste seg i unge sjeler.

             Den siste krig skal vi vinne,
             og de godes blod skal falle som regn.
             Deres korte sjeler skal samles.

             Vi skal rе de over kaos og evig natt.
             Vi skal glemme de kvinnelig vikante modre,
             og utslette alt.

             Et rike skal reiset seg,
             i asken av brennte hjem,
             det er kun en herre hersker,
             vi heller deg Satan de sterkes konge.

             Din tid er kommet.
Добавлено: 19.04.2012
Другие материалы по этой песне:

Страница создана 29.02.2012
http://primanota.ru/dimmu-borgir/det-nye-riket-chords.htm
Привет, Гость.
Предлагаем пройти революционный курс по гитаре.
Подарок от PrimaNota.Ru, забирай!