PrimaNota.ru - самый крупный в мире бесплатный архив песенных текстов, аккордов, табулатур и нот


Die Toten Hosen - Police On My Back - текст песни, таба, видео

Регистрация Запомнить меня
Войти через:  Facebook Google Twitter Vk Yandex Mail.ru

Die Toten Hosen - Police On My Back - текст песни, таба, видео

Печатать
Просмотров: 135
Уроки эстрадного вокала в Санкт-Петербурге
Die toten Hosen - Police on my Back

Intro

Guitar 1:

e----------------------------|
h---3-3-3-3-3-3-3-3-3-3------|
g----2-2-2-2-2-2-2-2-2-2-----|
D----------------------------|
A----------------------------|
E----------------------------|
Then Guitar 2 begins to play, Guitar 1 plays till the Verse:

Guitar 2 (3 x till Verse) :

e----------------------------|
h----------------------------|
g----------------------------|
D---7-7-7-7-7----------------|
A---5-5-5-5-5--5-5-5-5-5-----|
E--------------3-3-3-3-3-----|

Verse:

       C		   A		         C		A
I've been running, Police on my Back, I've been running, Down the rail way,

       C		   A		  C		  A
And to help me, Police on my back, And to give me, All the Speed I like 


Bridge:
		      A
I've been running, Monday, Tuesday, Wednesday,

		G
Thursday, Friday, Saturday, Sunday,

		 A
Running, Monday, Tuesday, Wednesday,

		G
Thursday, Friday, Saturday, Sunday,


Refrain: In the Refrain Guitar 1 again starts to play, Bass and Guitar 2 too.

And so on it plays the whole song along, just listen to the parts and you'll get it.

(c) by TriniTrimpop
Добавлено: 18.05.2012
Другие материалы по этой песне:
  • Аккорды и текст

Страница создана 06.05.2012
http://primanota.ru/die-toten-hosen/police-on-my-back-chords.htm
Привет, Гость.
Предлагаем пройти революционный курс по гитаре.
Подарок от PrimaNota.Ru, забирай!