PrimaNota.ru - самый крупный в мире бесплатный архив песенных текстов, аккордов, табулатур и нот


Die Toten Hosen - An Tagen Wie Diesen - бас-таба, видео

Регистрация Запомнить меня
Войти через:  Facebook Google Twitter Vk Yandex Mail.ru

Die Toten Hosen - An Tagen Wie Diesen - бас-таба, видео

Печатать
Просмотров: 118
-------------------------------------------------------------------------------
                    An Tagen wie diesen - Die Toten Hosen 
-------------------------------------------------------------------------------
Tabbed by: 
Nina

Tuning: G D A E

Intro:
G|---------------------|
D|---------------------|
A|-5---2---3---5-3---5-|
E|---3---3---3-----3---|

Verse:
G|---------------------------------------------------------------------------|
D|---------------------------------------------------------------------------|
A|-55-55-5---------22-22-2-------5-33-5---55-55-5-33-5---5--5--5-------------|
E|---------33-33-3---------33-33--------33--------------33-------------------|

Chorus 1:
G|------------------------------------------------------------------|  |---------|
D|------------------------------------------------------------------|  |---------|
A|-5555555555555555----------------7777777777777777-----------------|  |-5-5-5-5-|
E|-----------------3333333333333333----------------3333333333333333-|  |---------|

Verse x1

Chorus 1 x1

Chorus 2:
G|---------------------------------------------------------|
D|---------------------------------------------------------|
A|-533333333-5---------5555555555555555-33333333-5---------|
E|------------33333333----------------------------33333333-|

Bridge:
G|----------|
D|----------|
A|-5---2----|
E|---3---3--|

Chorus 1 x1

Chorus 2 x1

End:
G|---------------------------------------------------------------------------|
D|---------------------------------------------------------------------------|
A|-5555555555555555-33333333-5----------5--------5---------------------------|
E|----------------------------33333333-----3--5------------------------------|

| /  slide up
| \  slide down
| h  hammer-on
| p  pull-off
| ~  vibrato
| +  harmonic
| x  Mute note
===============================================================================
Добавлено: 01.10.2015
Другие материалы по этой песне:
  • Аккорды и текст

Страница создана 01.10.2015
http://primanota.ru/die-toten-hosen/an-tagen-wie-diesen-chords.htm
Привет, Гость.
Предлагаем пройти революционный курс по гитаре.
Подарок от PrimaNota.Ru, забирай!