PrimaNota.ru - самый крупный в мире бесплатный архив песенных текстов, аккордов, табулатур и нот


Die Toten Hosen - Alles Ist Eins - аккорды и текст, таба, видео

Регистрация Запомнить меня
Войти через:  Facebook Google Twitter Vk Yandex Mail.ru

Die Toten Hosen - Alles Ist Eins - аккорды и текст, таба, видео

Печатать
Просмотров: 240
Уроки эстрадного вокала в Санкт-Петербурге
Авторы музыки: Andreas von Holst
Авторы текста: Andreas Frege
Alles Ist Eins
Die Toten Hosen
		   t. See http://www..net/faq/ for more information.                     #
#-----------------------------------------------------------------------------#



  die Toten Hosen
  Alles ist eins

-----------------------------------------------------------------------
Interpretation by Adam Gatnar adagat_@poczta.onet.pl
Special thanks to Grzegorz Gatnar (Danke für txt)
-----------------------------------------------------------------------

Intro: Em - D - C - D
       C - G - Am - B

Verse 1
    Em
    D
C                D
    C           G
Am          B

Chorus

Verse 2

Chorus

Coda

Tab

Intro

E--3---3---3---3-->-2---2---2---2---3---3---3---3--------
B----5---5---5---5>---3---3---3---3---5---5---5---5------
G--------------------------------------------------------
D--------------------------------------------------------
A-------------------0---------------3--------------------
E--0-----------------------------------------------------

E->2---2---2---2----3---2---0---0------------3-----------
B--->3---3---3---3----1---1---1---1--3---3-------3-------
G--------------------------------------0---0---0---0-----
D--------------------------------------------------------
A--5----------------3----------------6-------------------
E--------------------------------------------------------

Zakonczenie wstepu jest w tym zapisie uproszczone
E------------0----2---2---~7-----------------------------
B-------------------0---0--------------------------------
G--6---6---6--6------------------------------------------
D----8---8-----8-----------------------------------------
A--0--------------2--------------------------------------
E--------------------------------------------------------


Score

Vocal

Verse


   Em            D        C              D
=------------------------------------------------------=

--------------------------------------------------------

--------------------------------------------------------
                                               0
----0------------------------------0--------------------
      #           #                         #
=-------0-------0---0----------0-------0---------------=
                       0                  0
 ---                      -0-
  0


     C             G                Am             B
=-------------------------------------------------------

--------------------------------------------------------

--------------------------------------------------------

--------------------------------------------------------
                                                       #
=----0--------------------------------------------------
       0           0                                 #
 ---     -0-   -0-    -0-  ---      ---   -0-
  0                         0    0                  0
                                    -0-         -0-



Chorus


   Em      D            C                D
=-------------------------------------------------------

--------------------------------------------------------

---0-------------------------------------0--------------
     0     0       0    0  0                0    0
-------0-----0------0---------0-------------------------
 #      #      #                  #
=-------------------------------------------------------
                                     0


     C               G             Am              B
=-------------------------------------------------------

--------------------------------------------------------

-----0--0-----------------------------------------------
   0       0         0
-0------------0---------0-----------------0-------------
                 #         #                 #         #
=----------------------------------0--0---------0----0--
                              0                    #


W zale¿no¶ci od tekstu w zwrotce i w refrenie wystêpuj¹ drobne
zmiany w melodii.     
Добавлено: 27.10.2013
Другие материалы по этой песне:

Страница создана 12.03.2012
http://primanota.ru/die-toten-hosen/alles-ist-eins-chords.htm
Привет, Гость.
Предлагаем пройти революционный курс по гитаре.
Подарок от PrimaNota.Ru, забирай!