PrimaNota.ru - самый крупный в мире бесплатный архив песенных текстов, аккордов, табулатур и нот


Dick Dale - Hot Rod Racer - бас-таба, видео

Регистрация Запомнить меня
Войти через:  Facebook Google Twitter Vk Yandex Mail.ru

Dick Dale - Hot Rod Racer - бас-таба, видео

Печатать
Просмотров: 167
hello. i love dick dale. and this is the bass line to one of
my favorite songs by him. hope you like it.


                "HOT ROD RACER" by Dick Dale & his Del-Tones
intro:
G|------------7-7--9p7-|----------7-7--9h7-|--------5-5--7p5-|--------5-5--7p5-|
D|---5-5--7s9----------|-5-5--7s9----------|-3--5s7----------|-3--5s7----------|
A|---------------------|-------------------|-----------------|-----------------|
E|---------------------|-------------------|-----------------|-----------------|

verse:

yeah i hopped in my hot rod racer!
G|---------------------|---------------------|
D|------------5-5--7p5-|-----------5-5--7p5--|
A|--3-3--5-/-7---------|-3-3--5-/-7----------|
E|---------------------|---------------------|

couldnt help myself i had to chase her
G|-------------7-7--9p7-|-----------7-7--9h7-|
D|---5-5--7-/-9---------|-5-5--7-/-9---------|
A|----------------------|--------------------|
E|----------------------|--------------------|

down to new orleans
G|------------5-5--7p5-|------------5-5--7p5-|
D|-3-3--5-/-7----------|-3-3--5-/-7----------|
A|---------------------|---------------------|
E|---------------------|---------------------|

where that girl was last seen, oh yeh
G|---------------------|---------------------|
D|------------5-5--7p5-|-----------5-5--7p5--|
A|--3-3--5-/-7---------|-3-3--5-/-7----------|
E|---------------------|---------------------|

ya know she left uh me cold
G|-------------7-7--9p7-|-----------7-7--9h7-|
D|---5-5--7-/-9---------|-5-5--7-/-9---------|
A|----------------------|--------------------|
E|----------------------|--------------------|

ya know she hurt uh mah soul
G|------------5-5--7p5-|------------5-5--7p5-|
D|-3-3--5-/-7----------|-3-3--5-/-7----------|
A|---------------------|---------------------|
E|---------------------|---------------------|

ya but somethin kept tellin me deep within
G|---------------------------------------|
D|---------------------------------------|
A|------3-----------3----------3-------3-|
E|---------------------------------------|

if i only started racing i'd be with her again!
G|-------------------------------|
D|---------------------------5---|
A|---5-------------5-------------|
E|-------------------------------|

yeah i hopped in my hot rod racer!
G|---------------------|---------------------|
D|------------5-5--7p5-|-----------5-5--7p5--|
A|--3-3--5-/-7---------|-3-3--5-/-7----------|
E|---------------------|---------------------|

and keep up with this until the end of the song

and have fun!


-Bert
Добавлено: 04.07.2012
Другие материалы по этой песне:
  • Аккорды и текст

Страница создана 04.07.2012
http://primanota.ru/dick-dale/hot-rod-racer-chords.htm
Привет, Гость.
Предлагаем пройти революционный курс по гитаре.
Подарок от PrimaNota.Ru, забирай!