PrimaNota.ru - самый крупный в мире бесплатный архив песенных текстов, аккордов, табулатур и нот


Dick Dale - Mexico - таба, видео

Регистрация Запомнить меня
Войти через:  Facebook Google Twitter Vk Yandex Mail.ru

Dick Dale - Mexico - таба, видео

Печатать
Просмотров: 214
this song has a lot of reverb so i'm sorry f i forgot a few notes due to them being 
picked.
you really got to listen to the song to get this.


                "MEXICO" by Dick Dale

|---10-10-10-10-/-9--9--9--/-7-7-7-/-5-5-5-/-3--2-2-2-2-2--|
|---12-12-12-12-/-10-10-10-/-8-8-8-/-7-7-7-/-5--3-3-3-3-3--|
|----------------------------------------------------------|
|----------------------------------------------------------|
|----------------------------------------------------------|
|----------------------------------------------------------|

|---10-10-10-10-/-9--9--9--/-7-7-7-/-5-5-5-/-3--2-2-2-2-2--|
|---12-12-12-12-/-10-10-10-/-8-8-8-/-7-7-7-/-5--3-3-3-3-3--|
|----------------------------------------------------------|
|----------------------------------------------------------|
|----------------------------------------------------------|
|----------------------------------------------------------|

|---2-2-2--3--5--2-2-22222--|--2-2-2--3--5-55555--|
|---3-3-3--5--7--3-3-33333--|--3-3-3--5--7-77777--|
|---------------------------|---------------------|
|---------------------------|---------------------|
|---------------------------|---------------------|
|---------------------------|---------------------|

|-2-2-2--3--5-5-7-5-5-7--5-7-5--5---3--5--3-3333-|
|-3-3-3--5--7-7-7-7-7-7--7-7-7--7---5--5--5-5555-|
|------------------------------------------------|
|------------------------------------------------|
|------------------------------------------------|
|------------------------------------------------|

|---9---9--9--10---9--|--------------------------------------------------------|
|--10--10-10--10--10--|---202019191818171716161514/--20201919181817161514/-----|
|---------------------|----tremolo-pick-down-----------------------------------|
|---------------------|--------------------------------------------------------|
|---------------------|--------------------------------------------------------|
|---------------------|--------------------------------------------------------|

|----9-9-9-9-----5-5-5--3--2-2222222-|
|----10101010----7-7-7--5--3-3333333-|
|------------------------------------|
|------------------------------------|
|------------------------------------|
|------------------------------------|

|---7--6--7--6--7--6--7--10--7--7777-|-7--6--7--6--7--6--7---8--9-9-9-9-~|
|---8--7--8--7--8--7--8--12--8--8888-|-8--7--8--7--8--7--8---9--10101010~|
|------------------------------------|-----------------------------------|
|------------------------------------|-----------------------------------|
|------------------------------------|-----------------------------------|
|------------------------------------|-----------------------------------|

|---5-5-5--3--2-222222--|
|---7-7-7--5--3-333333--|
|-----------------------|
|-----------------------|
|-----------------------|
|-----------------------|

|--2-2-2--3--3--5-55555-|
|--3-3-3--5--5--7-77777-|
|-----------------------|
|-----------------------|
|-----------------------|
|-----------------------|

|-2-2-2--3--5-5-7-5-5-7--5-7-5--5---3--5--3-3333-|
|-3-3-3--5--7-7-7-7-7-7--7-7-7--7---5--5--5-5555-|
|------------------------------------------------|
|------------------------------------------------|
|------------------------------------------------|
|------------------------------------------------|

|---9---9--9--10---9--|--------------------------------------------------------|
|--10--10-10--10--10--|---202019191818171716161514/--20201919181817161514/-----|
|---------------------|----tremolo-pick-down-----------------------------------|
|---------------------|--------------------------------------------------------|
|---------------------|--------------------------------------------------------|
|---------------------|--------------------------------------------------------|

|----9-9-9-9-----5-5-5--3--2-2222222-|
|----10101010----7-7-7--5--3-3333333-|
|------------------------------------|
|------------------------------------|
|------------------------------------|
|------------------------------------|

faster part

|--x-12--10--9--7--5--|--7--6--7--6--7--|--x--12--10--9--7--5-|------------------|
|---------------------|-----------------|---------------------|-10--8--10--8--10-|
|---------------------|-----------------|---------------------|------------------|
|---------------------|-----------------|---------------------|------------------|
|---------------------|-----------------|---------------------|------------------|
|---------------------|-----------------|---------------------|------------------|

|--x-12--10--9--7--5-|-----------------|-----10-9--7------7--10--|----10-9--7------7--10-|
|--------------------|--8--7--8--7--8--|--10-----------10--------|-10-----------10-------|
|--------------------|-----------------|-------------------------|-----------------------|
|--------------------|-----------------|-------------------------|-----------------------|
|--------------------|-----------------|-------------------------|-----------------------|
|--------------------|-----------------|-------------------------|-----------------------|

|--x-12--10--9--7--5--|--7--6--7--6--7--|--x--12--10--9--7--5-|------------------|
|---------------------|-----------------|---------------------|-10--8--10--8--10-|
|---------------------|-----------------|---------------------|------------------|
|---------------------|-----------------|---------------------|------------------|
|---------------------|-----------------|---------------------|------------------|
|---------------------|-----------------|---------------------|------------------|

|--x-12--10--9--7--5-|-----------------|-----10-9--7------7--10--|----10-9--7------7--10-|
|--------------------|--8--7--8--7--8--|--10-----------10--------|-10-----------10-------|
|--------------------|-----------------|-------------------------|-----------------------|
|--------------------|-----------------|-------------------------|-----------------------|
|--------------------|-----------------|-------------------------|-----------------------|
|--------------------|-----------------|-------------------------|-----------------------|

|---5-5-5--3--2-222222--|
|---7-7-7--5--3-333333--|
|-----------------------|
|-----------------------|
|-----------------------|
|-----------------------|

|--2-2-2--3--3--5-55555-|
|--3-3-3--5--5--7-77777-|
|-----------------------|
|-----------------------|
|-----------------------|
|-----------------------|

|-2-2-2--3--5-5-7-5-5-7--5-7-5--5---3--5--3-3333-|
|-3-3-3--5--7-7-7-7-7-7--7-7-7--7---5--5--5-5555-|
|------------------------------------------------|
|------------------------------------------------|
|------------------------------------------------|
|------------------------------------------------|

|---9---9--9--10---9--|--------------------------------------------------------|
|--10--10-10--10--10--|---202019191818171716161514/--20201919181817161514/-----|
|---------------------|----tremolo-pick-down-----------------------------------|
|---------------------|--------------------------------------------------------|
|---------------------|--------------------------------------------------------|
|---------------------|--------------------------------------------------------|

|----9-9-9-9-----5-5-5--3--2-2222222-|
|----10101010----7-7-7--5--3-3333333-|
|------------------------------------|
|------------------------------------|
|------------------------------------|
|------------------------------------|

|---7--6--7--6--7--6--7--10--7--7777-|-7--6--7--6--7--6--7---8--9-9-9-9-~|
|---8--7--8--7--8--7--8--12--8--8888-|-8--7--8--7--8--7--8---9--10101010~|
|------------------------------------|-----------------------------------|
|------------------------------------|-----------------------------------|
|------------------------------------|-----------------------------------|
|------------------------------------|-----------------------------------|

|---5-5-5--3--2-222222--|
|---7-7-7--5--3-333333--|
|-----------------------|
|-----------------------|
|-----------------------|
|-----------------------|

|--2-2-2--3--3--5-55555-|
|--3-3-3--5--5--7-77777-|
|-----------------------|
|-----------------------|
|-----------------------|
|-----------------------|

|-2-2-2--3--5-5-7-5-5-7--5-7-5--5---3--5--3-3333-|
|-3-3-3--5--7-7-7-7-7-7--7-7-7--7---5--5--5-5555-|
|------------------------------------------------|
|------------------------------------------------|
|------------------------------------------------|
|------------------------------------------------|

|---9---9--9--10---9--|--------------------------------------------------------|
|--10--10-10--10--10--|---202019191818171716161514/--20201919181817161514/-----|
|---------------------|----tremolo-pick-down-----------------------------------|
|---------------------|--------------------------------------------------------|
|---------------------|--------------------------------------------------------|
|---------------------|--------------------------------------------------------|

|----9-9-9-9-----5-5-5--3--2-2222222-|
|----10101010----7-7-7--5--3-3333333-|
|------------------------------------|
|------------------------------------|
|------------------------------------|
|------------------------------------|

|--x-12--10--9--7--5--|--7--6--7--6--7--|--x--12--10--9--7--5-|------------------|
|---------------------|-----------------|---------------------|-10--8--10--8--10-|
|---------------------|-----------------|---------------------|------------------|
|---------------------|-----------------|---------------------|------------------|
|---------------------|-----------------|---------------------|------------------|
|---------------------|-----------------|---------------------|------------------|

|--x-12--10--9--7--5-|-----------------|-----10-9--7------7--10--|----10-9--7------7--10-|
|--------------------|--8--7--8--7--8--|--10-----------10--------|-10-----------10-------|
|--------------------|-----------------|-------------------------|-----------------------|
|--------------------|-----------------|-------------------------|-----------------------|
|--------------------|-----------------|-------------------------|-----------------------|
|--------------------|-----------------|-------------------------|-----------------------|

|--x-12--10--9--7--5--|--7--6--7--6--7--|--x--12--10--9--7--5-|------------------|
|---------------------|-----------------|---------------------|-10--8--10--8--10-|
|---------------------|-----------------|---------------------|------------------|
|---------------------|-----------------|---------------------|------------------|
|---------------------|-----------------|---------------------|------------------|
|---------------------|-----------------|---------------------|------------------|

|--x-12--10--9--7--5-|-----------------|-----10-9--7------7--10--|----10-9--7------7--10-|
|--------------------|--8--7--8--7--8--|--10-----------10--------|-10-----------10-------|
|--------------------|-----------------|-------------------------|-----------------------|
|--------------------|-----------------|-------------------------|-----------------------|
|--------------------|-----------------|-------------------------|-----------------------|
|--------------------|-----------------|-------------------------|-----------------------|

|---10-10-10-10-/-9--9--9--/-7-7-7-/-5-5-5-/-3--2-2-2-2-2--|
|---12-12-12-12-/-10-10-10-/-8-8-8-/-7-7-7-/-5--3-3-3-3-3--|
|----------------------------------------------------------|
|----------------------------------------------------------|
|----------------------------------------------------------|
|----------------------------------------------------------|

|---10-10-10-10-/-9--9--9--/-7-7-7-/-5-5-5-/-3--2-2-2-2-2--|
|---12-12-12-12-/-10-10-10-/-8-8-8-/-7-7-7-/-5--3-3-3-3-3--|
|----------------------------------------------------------|
|----------------------------------------------------------|
|----------------------------------------------------------|
|----------------------------------------------------------|


woo! that's all! yay!

-Bert
Добавлено: 23.06.2012
Другие материалы по этой песне:
  • Аккорды и текст

Страница создана 23.06.2012
http://primanota.ru/dick-dale/mexico-chords.htm
Привет, Гость.
Предлагаем пройти революционный курс по гитаре.
Подарок от PrimaNota.Ru, забирай!