PrimaNota.ru - самый крупный в мире бесплатный архив песенных текстов, аккордов, табулатур и нот


Devo - Come Back Jonee - текст песни, таба, видео

Регистрация Запомнить меня
Войти через:  Facebook Google Twitter Vk Yandex Mail.ru

Devo - Come Back Jonee - текст песни, таба, видео

Печатать
Просмотров: 105
Авторы: Gerald Casale, Mark Mothersbaugh

Song: Come Back Jonee
Band: Devo
Album: Q - Are We Not Men? A - We Are Devo!

Note: There are three noticeable guitars on this song. A distorted guitar, a 
clean guitar, and a soloing guitar.

Intro: Distorted Guitar

|----------------------------|
|----------------------------|
|---------------7-7-7-7-7-7--| Play this 3 times.
|--5--2-2-------7-7-7-7-7-7--|
|---------3--5--5-5-5-5-5-5--|
|----------------------------|
 

Then the clean guitar plays as well as the distorted guitar. The distorted 
guitar part plays the single notes. The clean plays the chords.

|------------------------|-------------------------|             
|------------5-5-5-5-5-5-|-------------5-5-5-5-5-5-|             
|------------5-5-5-5-5-5-|-------------5-5-5-5-5-5-|
|-5--2-2-0---5-5-5-5-5-5-|--5--2-2-0---5-5-5-5-5-5-|
|----------3-3-3-3-3-3-3-|-----------3-3-3-3-3-3-3-|
|------------------------|-------------------------|  


|------------3-3-3-3-3-3-|-------------------------|
|------------3-3-3-3-3-3-|-------------5-5-5-5-5-5-|
|------------4-4-4-4-4-4-|-------------5-5-5-5-5-5-|
|-5--2-2-----5-5-5-5-5-5-|--5--2-2-0---5-5-5-5-5-5-|
|--------3---5-5-5-5-5-5-|-----------3-3-3-3-3-3-3-|
|----------3-3-3-3-3-3-3-|-------------------------|  


|------------------------|
|------------5-5-5-5-5-5-|
|------------5-5-5-5-5-5-|
|-5--2-2-0---5-5-5-5-5-5-|
|----------3-3-3-3-3-3-3-|
|------------------------|

When the verse comes in, instead of the distorted guitar playing the intro by 
itself, the clean guitar plays the chords at the beginning on the intro. 

Therefore, the chords to the verses are as follows:


D|D|D|C|C|G|C|C|

Between the verses, a keyboard or something plays this next part while the 
guitars play their parts:

|--------------|                  |--------------|
|-8--5---------|                  |-8--5---------|
|-------5-7----| Play 3 Times     |-------7-5----| Play 2 Times
|--------------|                  |--------------|
|--------------|                  |--------------|
|--------------|                  |--------------|
 
|--------------|--------------|--------------|
|-8--5---------|-8--5---------|-8--5---------|
|-------5------|-------7-5----|-------7-5----|
|---------5----|--------------|--------------|
|--------------|--------------|--------------|
|--------------|--------------|--------------|


For the breaks between some of the verses and the outro part, both guitars 
play this:

|-----------------|------------------3-------|
|-----------------|------------------3-------|
|-------------10--|------------------4-------|
|--3------8---10--|--5-5-5-5-5-5-5-5-5-------| El Fin
|--3------8----8--|--5-5-5-5-5-5-5-5-5-------|
|--1------6-------|--3-3-3-3-3-3-3-3-3-------|

The guitar that solos does so between the verses and under the given chords.


     
Добавлено: 09.08.2013
Другие материалы по этой песне:

Страница создана 27.02.2012
http://primanota.ru/devo/come-back-jonee-chords.htm
Привет, Гость.
Предлагаем пройти революционный курс по гитаре.
Подарок от PrimaNota.Ru, забирай!