PrimaNota.ru - самый крупный в мире бесплатный архив песенных текстов, аккордов, табулатур и нот


Devo - Jerkin Back And Forth - бас-таба, видео

Регистрация Запомнить меня
Войти через:  Facebook Google Twitter Vk Yandex Mail.ru

Devo - Jerkin Back And Forth - бас-таба, видео

Печатать
Просмотров: 129
-------------------------------------------------------------------------------
			     JERKIN' BACK 'N' FORTH - Devo
-------------------------------------------------------------------------------

Tabbed By : WibbleWobble
e-mail: organisedchaos@talktalk.net

Tuning: standard EADG

from the album "New Traditionalists" 1981
Devo are great,  they should have more tabs on here.  This is one of my faves not 100% 
but near enough
G|---------------------------------------------------------------------------|
D|---------------------------------------------------------------------------|
A|--------------------------------------------------------------2-2-2-2------|
E|-00-33-55-6-776-77-6-776-77-6-776-77-6-776-77-6-776-77--00-33---------00-33|
                                               (00:22)
G|---------------------------------------------------------------------------|
D|---------------------------------------------------------------------------|
A|------2-2-2-2-------2-2-2-2--------2-2-2-2-----00-----22----55-------------|
E|00-33---------00-33----------00-33----------------00-----33----55--00-33---|

G|-----------------------------------------------------------------------------|
D|-----------------------------------------------------------------------------|
A|-------------------------------------------------------2-2-2-2-------2-2-2---|
E|-55-6-776-77-6-776-77-6-776-77-6-776-77-6-776-77-00-33---------00-33---------|
                                  (00:53)
G|-----------------------------------------------------------------------------|
D|----------------------------------------------------22-2-2-------------------|
A|2-------2-2-2-2-------2-2-2-2---33-3-3-55-5-5-33-3-3---------33-3-3-55-5-5---|
E|-00-33---------00-33---------------------------------------------------------|

G|---------------------------------------------------------------------------|
D|---------------------------------------------------------------------------|
A|-------------------------2-2-2-2-------2-2-2-2--------2-2-2-2-------2-2-2-2|
E|-55-5-5-3-55-5-5-3-00-33---------00-33----------00-33---------00-33--------|
                (01:25)
G|---------------------------------------------------------------------------|
D|---------------------------------------------------------------------------|
A|------2-2-2-2-00-----22----55----------------------------------------------|
E|00-33------------00-----33----55-00-33-55-6-776-77-6-776-77-6-776-77-6-77--|

G|---------------------------------------------------------------------------|
D|---------------------------------------------------------------------------|
A|---------------------2-2-2-2-------2-2-2-2-------2-2-2-2-------2-2-2-2-----|
E|6-77-6-776-77--00-33---------00-33---------00-33---------00-33-------------|
 (01:56)
G|---------------------------------------------------------------------------|
D|----------------------22-2-2-----------------------------------------------|
A|-33-3-3-55-5-5-33-3-3--------33-3-3-55-5-5-----------------------2-2-2-2---|
E|-------------------------------------------55-5-5-3-55-5-5-00-33-----------|
                                               (02:26)
G|---------------------------------------------------------------------------|
D|---------------------------------------------------------------------------|
A|-------2-2-2-2-------2-2-2-2-------2-2-2-2---00----22----55----------------|
E|-00-33---------00-33---------00-33--------------00----33----55-00-33-55----|

G|-----------------------------------------------------------------------------|
D|-----------------------------------------------------------------------------|
A|---------------------------------------------00----22----55------------------|
E|6-776-77-6-776-77-6-776-77-6-776-77-6-776-77----00----33----55-00-33-55--3---|

G|---------------------------------------------------------------------------|
D|---------------------------------------------------------------------------|
A|---------------------------------------------------------------------------|
E|6-776-77-6-776-77-6-776-77-6-776-77-6-776-77-------------------------------|
Добавлено: 27.06.2012
Другие материалы по этой песне:

Страница создана 27.06.2012
http://primanota.ru/devo/jerkin-back-and-forth-chords.htm
Привет, Гость.
Предлагаем пройти революционный курс по гитаре.
Подарок от PrimaNota.Ru, забирай!