PrimaNota.ru - самый крупный в мире бесплатный архив песенных текстов, аккордов, табулатур и нот


ДЕТИДЕТЕЙ - Театральная - аккорды и текст, видео

Регистрация Запомнить меня
Войти через:  Facebook Google Twitter Vk Yandex Mail.ru

ДЕТИДЕТЕЙ - Театральная - аккорды и текст, видео

Печатать
Просмотров: 131
Уроки эстрадного вокала в Санкт-Петербурге
Театральная
ДЕТИДЕТЕЙ
E-------------------------------------------------------------------------- 
B----3-3-3----2-2-2----1-1-1----0-0-0---------------3-3-3-------2-2-------- 
G---2-2-2-2--2-2-2-2--2-2-2-2--2-2-2-2----3-3-3----2-2-2-2----2--2-2------- 
D--0--------0--------0--------0----------5-5-5-5--0----------2-2----------- 
A---------------------------------------5-------------------0-------------- 
E-------------------------------------------------------------------------- 

Старый театр, позабытый, 
Видит сон, что он открыт 
И дети ждут своих любимцев - 
Кукол, клоунов и принцев. 

E--------------------------------------------- 
B-------------------------3-3-3-----3-3-3----- 
G-----3-3-3-----3-3-3----2-2-2-2---2-2-2-2---- 
D----5-5-5-5---5-5-5-5--0---------0----------- 
A-------------5------------------------------- 
E---0----------------------------------------

Ах, веселые картинки! 
Каждый знает свою роль. 
Вот принцесса-невидимка. 

E----------------------------------------------------------- 
B-----2-2-2-----3-3-3-----2-2-2-----1-1-1-----2-2-2--------- 
G----2-2-2-2---2-2-2-2---2-2-2-2---2-2-2-2---2-2-2-2-------- 
D-------------0---------0---------0---------0--------------- 
A---0------------------------------------------------------- 
E----------------------------------------------------------- 

Но спасет ее герой... 

Посмотри, какой отважный! 
Ну и что, что меч бумажный? 
А давай пойдем с ним вместе 
И спасем его невесту. 
Ах, веселые картинки! 
Каждый знает свою роль. 
Вот принцесса-невидимка. 
Но спасет ее герой... 

Он любви своей признаньем 
Все разрушил заклинанья, 
И к принцессе потянулся... 
Театр замер... и проснулся. 
Где веселые картинки... 
Где кому-то нужен я... 
А я - театр-невидимка... 
Где герой спасти меня?.. 
Добавлено: 28.03.2016
Другие материалы по этой песне:
  • Аккорды и текст

Страница создана 28.03.2016
http://primanota.ru/detidetei/teatralnaya-chords.htm
Привет, Гость.
Предлагаем пройти революционный курс по гитаре.
Подарок от PrimaNota.Ru, забирай!