PrimaNota.ru - самый крупный в мире бесплатный архив песенных текстов, аккордов, табулатур и нот


Demon Hunter - This I Know - текст песни, таба, видео

Регистрация Запомнить меня
Войти через:  Facebook Google Twitter Vk Yandex Mail.ru

Demon Hunter - This I Know - текст песни, таба, видео

Печатать
Просмотров: 215
-------------------------------------------------------------------------------
                             This I Know - Demon Hunter
-------------------------------------------------------------------------------
Tabbed by: demonhunter2211
E-mail: demonhunter2211@yahoo.com

Tuning: Drop B


Intro

e|----------------------------------------------------------------------------|
B|----------------------------------------------------------------------------|
G|---------------------------------5/7----------------------------------------|
D|---------------------------------x/x----------------------------------------| (x4)
A|---------------------------------3/5----------------------------------------|
E|---000000--0-0-0-00--0000-0-0-0-0-------------------------------------------|
     ******  * * * **  **** * * * *
e|---------------------------------------------------------------------------------|
B|---------------------------------------------------------------------------------|
G|-------------------------------5/7-------------------------------8\7-------------|
D|-------------------------------x/x-------------------------------x\x-------------| (x2)
A|-------------------------------3/5-------------------------------6\5-------------|
E|000000--0-0-0--00--0000-0-0-0-0----000000--0-0-0-00--0000-0-0-0-0----------------|
  ******  * * *  **  **** * * * *    ******  * * * **  **** * * * *

Verse

e|---------------------------------------------------------------------------|
B|---------------------------------------------------------------------------|
G|---------------------------------------------------------------------------|
D|---------------------------------------------------------------------------|
A|5-5-5---5-5-5----5--6---5-5-5---5-5-5---5---6------------------------------|
E|0-0-0-000-0-0--000000-000-0-0-000-0-0-000-000------------------------------|
        **       ** **  **      **      **  **

e|---------------------------------------------------------------------------|
B|---------------------------------------------------------------------------|
G|--11-11-11--11-11-11--11--12--11-11-11--11-11-11--11--12-------------------|
D|--x--x--x---x--x--x---x---x---x--x--x---x--x--x---x---x--------------------|
A|--9--9--9---9--9--9---9---10--9--9--9---9--9--9---9---10-------------------|
E|000--0--0-000--0--0-000-000-000--0--0-000--0--0-000-000--------------------|
  **        **        **  **  **        **        **  **

Pre-Chorus

e|----------------------------------------------------------------------------|
B|----------------------------------------------------------------------------|
G|----------------------------------------------------------------------------|
D|----------------------------------------------------------------------------|
A|--6p5----3h5----6p5----3h5----6p5--8p6--6p5----3h5----6p5----3h5----6p5--8h6|
E|00---0000---0000---0000---0000---00---00---0000---0000---0000---0000---00---|
  **   ****   ****   ****   ****   **   **   ****   ****   ****   ****   **

e|---------------------------------------------------------------------------------------|
B|---------------------------------------------------------------------------------------|
G|---------------------------------------------------------------------------------------|
D|---------------------------------------------------------------------------------------|
A|--10p9----7h9----10p9----7h9----10p9--12p10--10p9----7h9----10p9----7h9----10p9---12p10|
E|00----0000---0000----0000---0000----00-----00----0000---0000----0000---0000----00------|
  **    ****   ****    ****   ****    **     **    ****   ****    ****   ****    **

Chorus

e|---------------------------------------------------------------------------|
B|---------------------------------------------------------------------------|
G|---------------------------------------------------------------------------|
D|---------------------------------------------------------------------------|
A|---------------------------------------------------------------------------|
E|0000-000000002222-222222223333-333333332222-22222222-----------------------| 
**** ************ ************ ************ ********

(repeat pre-verse)

(repeat pre-chorus)

(repeat chorus)

Pre-Solo (rhythm)

e|---------------------------------------------------------------------------------------|
B|---------------------------------------------------------------------------------------|
G|---------------------------------------------------------------------------------------|
D|---------------------------------------------------------------------------------------|
A|5---5---5---3h5--5h6--6h8--------------------------------------------------------------| (x4)
E|0---0---0------00---00-----------------------------------------------------------------|
                 **   **

Pre-Solo (lead) 

e|---10--10-10--10--10-10-10--10-------------------------------------------------------------|
B|-----13---------13--------13---------------------------------------------------------------|
G|-------------------------------------------------------------------------------------------|
D|-------------------------------------------------------------------------------------------| (x4)
A|-------------------------------7h9--9h10--10h12--------------------------------------------|
E|----------------------------------00----00-------------------------------------------------|
                                    **    **
No solo tabbed ):

Rhythm is same as intro then:

E|0000-000000000000-000000000000-0000000000000000|
  **** ************ ************ ****************
(repeat pre-solo)

************************************

| /   slide up
| \   slide down
| h   hammer-on
| p   pull-off
| ~   vibrato
| +   harmonic
| x   Mute note
| b   Bend
| pb  Pre-bend
| br  Bend release
| pbr Pre-bend release
| brb Bend release bend

************************************
Добавлено: 15.10.2013
Другие материалы по этой песне:
  • Аккорды и текст

Страница создана 16.08.2013
http://primanota.ru/demon-hunter/this-i-know-chords.htm
Привет, Гость.
Предлагаем пройти революционный курс по гитаре.
Подарок от PrimaNota.Ru, забирай!