PrimaNota.ru - самый крупный в мире бесплатный архив песенных текстов, аккордов, табулатур и нот


Demon Hunter - The Last One Alive - таба, видео

Регистрация Запомнить меня
Войти через:  Facebook Google Twitter Vk Yandex Mail.ru

Demon Hunter - The Last One Alive - таба, видео

Печатать
Просмотров: 164
-------------------------------------------------------------------------------
                             The Last One Alive - Demon Hunter
-------------------------------------------------------------------------------
Tabbed by:Skinny
E-mail:sidewaysskinny@gmail.com

I'm not sure what the tuning for the song is.  I figured out this solo in
Standard tuning, and as such, this tab is written in Standard tuning.  First tab 
I have ever written.  My hope is that someone can help me fill in the parts that
may not be correct.


| /   slide up
| \   slide down
| h   hammer-on
| p   pull-off
| v   vibrato
| ph  pinch harmonic
| x   Mute note
| b   Bend
| pb  Pre-bend
| r  Bend release
| pbr Pre-bend release
| brb Bend release bend

e|---------------------------------------------------------------------------|
B|---------------------------------------------------------------------------|
G|--9b11r9b11-----11pb9-r6---------9-----------------------------------------|
D|---------------------------9/11-----9\7--9--7------7--7-----------7--------|
A|------------------------------------------------9--------9--7--9-----9-----|
E|---------------------------------------------------------------------------|

e|---------------------------------------------------------------------------|
B|---------------------------------------------------------------------------|
G|-------------11--9------9--------------------------------------------------|
D|-9/11--9------------11-----11--9--10--9--7--9--7-----7--------9--7---------|
A|--------------------------------------------------9-----9--7--------9------|
E|---------------------------------------------------------------------------|

e|---------------------------------------------------------------------------|
B|---------------------------------10------------12b14---10-------12--10-----|
G|--------------------------9--11------11--------------------11-----------11-|
D|-11--9-------------9--11---------------------------------------------------|
A|--------12--9--12----------------------------------------------------------|
E|---------------------------------------------------------------------------|

e|---------------------------------------------------------------------------|
B|---------------------------------------------------------------------------|
G|-/14--13---\9-----ph13b14r13p11--/11----11\9---------------------9---------|
D|----------------------------------------------7-9---7-9---7-9/11----9--7-9-|
A|---------------------------------------------------------------------------|
E|---------------------------------------------------------------------------|

e|---------------------------------------------------------------------------|
B|---------------------------------------------------------------------------|
G|------------------19----18--------------16---13---14-----------------------|
D|-7--------------16----16--------------14---14---14-------------------------|
A|----9-----16-19-----------------14-16--------------------------------------|
E|---------------------------------------------------------------------------|

e|---------------------------------------------------------------------------|
B|---------------------------------------------------------------------------|
G|--------------------14------------------------------------2-1---1----------|
D|-14--12--12/14--16--16---------4-2---2-----------------------------4--2----|
A|-----------------------------------------4--2----------------------------2-|
E|-----------------------------------------------5--0------------------------|

e|---------------2/5---------7\5---------7/9------------12\9-----------------|
B|-----------------------2/7-----------------10------12----------------------|
G|-------------------7\2---------7-----9--------9/11---------11-------14-----|
D|---------------------------------7/9--------------------------11/14--------|
A|-0-------x-----------------------------------------------------------------|
E|----2----x-----------------------------------------------------------------|

e|-12/14-------------17b19r17p14---------------14-16-17-16-14-16-14----14-16-|
B|-------12-------15--------------17v19-----17----------------------17-------|
G|----------11/14------------------------------------------------------------|
D|---------------------------------------------------------------------------|
A|---------------------------------------------------------------------------|
E|---------------------------------------------------------------------------|

e|-17-16-14-16-14------------------------------------------------------------|
B|----------------17-16-14-16-14----14-16-17-16-14-16-14-------------17------|
G|-------------------------------16----------------------16-14-16b18(18)r16--|
D|---------------------------------------------------------------------------|
A|---------------------------------------------------------------------------|
E|---------------------------------------------------------------------------|

e|---------------------------------------------------------------------------|
B|---------------------------------------------------------------------------|
G|-14----14v16------------------------------------------------------11-13-14-|
D|----16------------------------------------------11-12-14-11-12-14----------|
A|------------------------------11-12-14-11-12-14----------------------------|
E|---------------------10-12-14----------------------------------------------|

e|-------------------12v14---------------------------------------------------|
B|----------12-14-15---------------------------------------------------------|
G|-11-13-14------------------------------------------------------------------|
D|---------------------------------------------------------------------------|
A|---------------------------------------------------------------------------|
E|---------------------------------------------------------------------------|

Thanks, and any help, suggestions, fixes, etc... are more than welcome.
Добавлено: 02.07.2015
Другие материалы по этой песне:
  • Аккорды и текст

Страница создана 02.07.2015
http://primanota.ru/demon-hunter/last-one-alive-chords.htm
Привет, Гость.
Предлагаем пройти революционный курс по гитаре.
Подарок от PrimaNota.Ru, забирай!