PrimaNota.ru - самый крупный в мире бесплатный архив песенных текстов, аккордов, табулатур и нот


Demon Hunter - Deteriorate - текст песни, таба, бас-таба, видео

Регистрация Запомнить меня
Войти через:  Facebook Google Twitter Vk Yandex Mail.ru

Demon Hunter - Deteriorate - текст песни, таба, бас-таба, видео

Печатать
Просмотров: 283
Новый альбом группы 'Черный Кузнец' по культовому сериалу 'Сверхъестественное'!
Ok here is my part view of how the song should be played. Ive looked at the other tabs 
there are some similarities but i didnt copy. Enjoy anyways.

Tuning is drop C# (C#G#C#F#A#D#)


Intro
Guitar 1 w/ delay:		 (x4)
------------------------------------|
------------------------------------|
------------------------------------|
------6-----------11----------6-----|
----4---4~------8----8~-----4---4~--|
--6-----------8-----------4---------|


Verse
Guitar 1 w/ delay:
------------------------------------|
------------------------------------|
------------------------------------|
------6-----------11----------6-----|
----4---4~------8----8~-----4---4~--|
--6-----------8-----------4---------|

Guitar 2:
------------------------------------------------------------|
------------------------------------------------------------|
------------------------------------------------------------|
--4-44-4-44-4--10-1010-10-1010-10--7-77-7-77-7-7-77-7-77-7--|
--4-44-4-44-4--10-1010-10-1010-10--7-77-7-77-7-7-77-7-77-7--|
--2-22-2-22-2--7--7-7--7--7-7--7---5-55-5-55-5-5-55-5-55-5--|

Guitar 1 w/ delay:
------------------------------------|
------------------------------------|
------------------------------------|
------6-----------11----------6-----|
----4---4~------8----8~-----4---4~--|
--6-----------8-----------4---------|

-------------------------------------------------------------|
-------------------------------------------------------------|
-------------------------------------------------------------|
--4-44-4-44-4--10-1010-10-1010-10--7-77-7-77-7--5-55-5-55-5--|
--4-44-4-44-4--10-1010-10-1010-10--7-77-7-77-7--5-55-5-55-5--|
--2-22-2-22-2--7--7-7--7--7-7--7---5-55-5-55-5--3-33-3-33-3--|


Pre-Chorus
Guitar 1: 							   (x2)
----------------------------------------------------------------------|
----------------------------------------------------------------------|
----------------------------------------------------------------------|
-------8----8--------7--------7--------12--------12--------10-----10--|
-----8----8-------7-------7--------10--------10---------10-----10-----|
--8----8-------7-------7--------10---------10--------10-----10--------|

Guitar 2:
-------------------------------------------------------------|
-------------------------------------------------------------|
-------------------------------------------------------------|
--4-44-4-44-4--10-1010-10-1010-10--7-77-7-77-7--5-55-5-55-5--|
--4-44-4-44-4--10-1010-10-1010-10--7-77-7-77-7--5-55-5-55-5--|
--2-22-2-22-2--7--7-7--7--7-7--7---5-55-5-55-5--3-33-3-33-3--|


Chorus
Guitars 1, 2: 					      (x2)
---------------------------------------------------------|
---------------------------------------------------------|
---------------------------------------------------------|
--9-99-9-99-99--1-11-1-11-11--5-55-5-55-55-5-55-5-55-55--|
--9-99-9-99-99--1-11-1-11-11--5-55-5-55-55-5-55-5-55-55--|
--9-99-9-99-99--1-11-1-11-11--5-55-5-55-55-5-55-5-55-55--|

**On the second half of the third bar chord Guitar 1 will play this: **
--------------------------------|
--------------------------------|
--12121212--14141414--10101010--|
--12121212--14141414--10101010--|
--10101010--12121212--8-8-8-8---|
--------------------------------|

Guitar 1:
-----------------------------------|
-----------------------------------|
-----------------------------------|
--------8----------8----------7----|
-----8----8-----8----8-----7----7--|
--8----------8----------7----------|


Verse
Guitar 2:
------------------------------------------------------------|
------------------------------------------------------------|
------------------------------------------------------------|
--4-44-4-44-4--10-1010-10-1010-10--7-77-7-77-7-7-77-7-77-7--|
--4-44-4-44-4--10-1010-10-1010-10--7-77-7-77-7-7-77-7-77-7--|
--2-22-2-22-2--7--7-7--7--7-7--7---5-55-5-55-5-5-55-5-55-5--|

Guitar 1:
------------------------------------|
------------------------------------|
------------------------------------|
------6-----------11----------6-----|
----4---4~------8----8~-----4---4~--|
--6-----------8-----------4---------|

Guitar 2:
-------------------------------------------------------------|
-------------------------------------------------------------|
-------------------------------------------------------------|
--4-44-4-44-4--10-1010-10-1010-10--7-77-7-77-7--5-55-5-55-5--|
--4-44-4-44-4--10-1010-10-1010-10--7-77-7-77-7--5-55-5-55-5--|
--2-22-2-22-2--7--7-7--7--7-7--7---5-55-5-55-5--3-33-3-33-3--|


Pre-Chorus
Guitar 1: 							  (x2)
---------------------------------------------------------------------|
---------------------------------------------------------------------|
---------------------------------------------------------------------|
-------8----8-------7--------7--------12--------12--------10-----10--|
-----8----8-------7-------7--------10--------10---------10-----10----|
--8----8-------7-------7--------10---------10--------10-----10-------|

Guitar 2:
-------------------------------------------------------------|
-------------------------------------------------------------|
-------------------------------------------------------------|
--4-44-4-44-4--10-1010-10-1010-10--7-77-7-77-7--5-55-5-55-5--|
--4-44-4-44-4--10-1010-10-1010-10--7-77-7-77-7--5-55-5-55-5--|
--2-22-2-22-2--7--7-7--7--7-7--7---5-55-5-55-5--3-33-3-33-3--|


Chorus
Guitars 1, 2: 					      (x2)
---------------------------------------------------------|
---------------------------------------------------------|
---------------------------------------------------------|
--9-99-9-99-99--1-11-1-11-11--5-55-5-55-55-5-55-5-55-55--|
--9-99-9-99-99--1-11-1-11-11--5-55-5-55-55-5-55-5-55-55--|
--9-99-9-99-99--1-11-1-11-11--5-55-5-55-55-5-55-5-55-55--|

**On the second half of the third bar chord Guitar 1 will play this: **

--------------------------------|
--------------------------------|
--12121212--14141414--10101010--|
--12121212--14141414--10101010--|
--10101010--12121212--8-8-8-8---|
--------------------------------|


Bridge
Guitars 1, 2: 								(x3)
---------------------------------------------------------------------------|
---------------------------------------------------------------------------|
----------------------------------------------10--10--10-------10--10--10--|
--2-22-2-22-2--4-44-4-44-4--9-99-9-99-9-------8---8---8--------8---8---8---|
--2-22-2-22-2--4-44-4-44-4--9-99-9-99-9--0-0--8---8---8--0--0--8---8---8---|
--2-22-2-22-2--4-44-4-44-4--9-99-9-99-9--0-0-------------0--0--------------|

---------------------------------------------------|
---------------------------------------------------|
---------------------------------------------------|
--2-22-2-22-2-2-22-2-22-2-1-11-1-11-1-1-11-1-11-1--|
--2-22-2-22-2-2-22-2-22-2-1-11-1-11-1-1-11-1-11-1--|
--2-22-2-22-2-2-22-2-22-2-1-11-1-11-1-1-11-1-11-1--|


Guitar 1:                        (x2)
------------------------------------|
------------------------------------|
------------------------------------|
------6-----------11----------6-----|
----4---4~------8----8~-----4---4~--|
--6-----------8-----------4---------|

Guitars 1:                                          (x2)
-------------------------------------------------------|
-------------------------------------------------------|
-------------------------12121212--14141414--10101010--|
-------------------------12121212--14141414--10101010--|
----------2-22-2-22-2-2--10101010--12121212--8-8-8-8---|
----------2-22-2-22-2-2--------------------------------|

**Here G1 plays the first 2 parts from the intro then this above**)

Guitar 2:
---------------------------------------|
---------------------------------------|
---------------------------------------|
---------------------------------------|
--00--66--2-22-2-22-2-2-2-22-2-22-2-2--|
--00--66--2-22-2-22-2-2-2-22-2-22-2-2--|


Chorus
Guitars 1, 2: 					      (x3)
---------------------------------------------------------|
---------------------------------------------------------|
---------------------------------------------------------|
--9-99-9-99-99--1-11-1-11-11--5-55-5-55-55-5-55-5-55-55--|
--9-99-9-99-99--1-11-1-11-11--5-55-5-55-55-5-55-5-55-55--|
--9-99-9-99-99--1-11-1-11-11--5-55-5-55-55-5-55-5-55-55--|

**On the second half of the third bar chord Guitar 1 will play this: **

--------------------------------|
--------------------------------|
--12121212--14141414--10101010--|
--12121212--14141414--10101010--|
--10101010--12121212--8-8-8-8---|
--------------------------------|

-------------------------------------------------|
-------------------------------------------------|
-------------------------------------------------|
--9-99-9-99-99--1-11-1-11-11--5~--12~--14~--10~--|
--9-99-9-99-99--1-11-1-11-11--5~--12~--14~--10~--|
--9-99-9-99-99--1-11-1-11-11--5~--10~--12~--8-~--|
Добавлено: 29.11.2013
Другие материалы по этой песне:
  • Аккорды и текст

Страница создана 25.03.2012
http://primanota.ru/demon-hunter/deteriorate-chords.htm
Привет, Гость.
Предлагаем пройти революционный курс по гитаре.
Подарок от PrimaNota.Ru, забирай!