PrimaNota.ru - самый крупный в мире бесплатный архив песенных текстов, аккордов, табулатур и нот


Demi Lovato - 1234 Goodbye - аккорды и текст, таба, видео

Регистрация Запомнить меня
Войти через:  Facebook Google Twitter Vk Yandex Mail.ru

Demi Lovato - 1234 Goodbye - аккорды и текст, таба, видео

Печатать
Просмотров: 271
1234 Goodbye
Demi Lovato
The other tabs work but this is a little more accurate for more advanced
guitar players, its not very hard but its hard than just using that D. Also
this tab is a little harder to follow. So if its too difficult just use
those other tabs.
 

Tab by: BiancaGFangurl@aol.com
Standard tuning

intro:

----------33----33-------|
--22222---22-------------|
--22222------------------|
-------------------------|
-------------------------|
----------33----33-------|


-------------33----33----|
--22----33---22----------|
--22----22---------------|
-------------------------|
-------------------------|
-------------33----33----|


Verse:
"Take care of yourself..."
---------------33------------|
----22----33---22---55-------|
----22----22--------44-------|   2x
-----------------------------|
--------------------33-------|
---------------33---55-------|

"Cause we've all got one last night together.."
--------------33----55--------------|
--33----33----xx----xx--------------|
--22----22----22----44--------------|
------------------------------------|
--------11----11----33--------------|
--------------33----55--------------|

Chorus:
"These Moments...."
--33---------------------------|
--22---55----22---33-----------|
-------44----22---22-----------|  2x
-------------------------------|
-------33----------------------|
--33---55---------11-----------|

"We couldnt change..."
--------------------------------|
------3----33----55-------------|
--2---2----22----44-------------|
--------------------------------|
--1---1----11----33-------------|
-----------33----55-------------|

"Goodbye"

--3333-------|
--2222-------|
-------------|
-------------|
-------------|
--3333-------|


Repeat verse


Bridge:

"We've raised our voices...."
-------------33---------------------|
--22----33---22---55----------------|
--22----22--------44----------------|
------------------------------------|
------------------33----------------|
-------------33---55----------------|

"Who Will I be..."
-------------------------------------|
-22---33---------33---55-------------|
-22---22----22---22---44-------------|
-------------------------------------|
------------11---11---33-------------|
-----------------33---55-------------|

Repeat chorus

end on G



Take care
Of yourself darling
I guess
I guess this is goodbye
Tomorrow's coming quicker
Than yesterday came today

I guess this is goodnight
Cause' we've all
Got one last night together
So let's start the party
You know we rocked
Promise you
Won't forget about me
So these moments spent
Are coming to an end
I'm counting seconds
Till' next time again
Listen

One, two, three
Four, five
Six, seven
Eight, nine
We couln't change it
If we tryed
One, two, three, four
Goodbye

We all said before
Our time is here
But it never
Meant a thing
Until we all
Began to tear
And I'll be
Aching before

And after we depart
From rememberences
From the very start
The grand memories
Together
the grand memories
Together
Now here I Am
It's your song
I'll be singing
Your the voice
I heard
Inside my head

These moments spent
Are coming to an end
I'm counting seconds
Until next time again
Listen

One, two, three
Four, five
Six, seven
Eight, nine
We couln't change it
If we tryed
One, two, three, four
Goodbye

We've raised our voices
We've followed our dreams
One thing who will I be you ask
Well we'll never be too cool
For Camp Rock Three
These moments spent
Are coming to an end
I'm counting seconds
Until next time again
Listen

One, two, three
Four, five
Six, seven
Eight, nine
We couln't change it
If we tryed
One, two, three
Goodbye
Добавлено: 14.02.2014
Другие материалы по этой песне:
  • Аккорды и текст

Страница создана 07.09.2013
http://primanota.ru/demi-lovato/1234-goodbye-chords.htm
Привет, Гость.
Предлагаем пройти революционный курс по гитаре.
Подарок от PrimaNota.Ru, забирай!