PrimaNota.ru - самый крупный в мире бесплатный архив песенных текстов, аккордов, табулатур и нот


Delirious - Touch - текст песни, таба, видео

Регистрация Запомнить меня
Войти через:  Facebook Google Twitter Vk Yandex Mail.ru

Delirious - Touch - текст песни, таба, видео

Печатать
Просмотров: 118
-------------------------------------------------------------------------------
                             TOUCH - Delirious?
-------------------------------------------------------------------------------


Tuning: Standard

Intro
(Part One-sounds like a keyboard is playing it)
e|---0-4---0-4---------|
B|-0-----0-------------|
G|-------------------5-| x2
D|---------------------|
A|---------------------|
E|---------------------|

(Part Two-a slide could be used here)
(This is also played during the outro)
e|--4-\8-/2-\4-\7\8/7-/2\4/2-/4-|
B|------------------------------|
G|------------------------------|
D|------------------------------|
A|------------------------------|
E|------------------------------|

Verse (Keyboard and Guitar play this riff.  You can improvise on it to add a little flavor if you want)
e|---0-4---0-4---------|
B|-0-----0-------------|
G|-------------------5-| x3
D|---------------------|
A|---------------------|
E|---------------------|

e|---0-4---0-4------------5|
B|-0-----0-----------------|
G|-------------------5-----|
D|-------------------------|
A|-------------------------|
E|-------------------------|

e|---0-4----0-4---0-|
B|-0----------------|
G|------------------|
D|------------------|
A|------------------|
E|------------------|

e|---0-5----0-5---0-|
B|------------------|
G|-5----------------|
D|------------------|
A|------------------|
E|------------------|

e|---0-4----0-4---0-|
B|-0----------------|
G|------------------|
D|------------------|
A|------------------|
E|------------------|

e|---0-5----0-5---0-|
B|------------------|
G|-5----------------|
D|------------------|
A|------------------|
E|------------------|

e|---0-4----0-4---0-|
B|-0----------------|
G|------------------|
D|------------------|
A|------------------|
E|------------------|

e|---0-5----0-5---0-|
B|------------------|
G|-5----------------|
D|------------------|
A|------------------|
E|------------------|

e|---0-4----0-4---0-|
B|-0----------------|
G|------------------|
D|------------------|
A|------------------|
E|------------------|

e|---0-5----0-5---0-|
B|------------------|
G|-5----------------|
D|------------------|
A|------------------|
E|------------------|

e|---0-4----0-4---0-|
B|-0----------------|
G|------------------|
D|------------------|
A|------------------|
E|------------------|

e|---0-5----0-5---0-|
B|------------------|
G|-5----------------|
D|------------------|
A|------------------|
E|------------------|

e|----0---0----|
B|--0---0----0-|
G|-------------| x3
D|-------------|
A|-------------|
E|-------------|


e|----0---0----|
B|--0---0------|
G|-------------|
D|-------------|
A|-------------|
E|-------------|

(timing is not exact on this part)
e|-4-5-4|
B|------|
G|------|
D|------|
A|------|
E|------|

Chorus (notes in parentheses are only played on the first time around)
(skip the last portion of the chorus and go straight to the bridge on the chorus after verse 2)
e|--------------------------------------------------------------|
B|-5----9--7--5--4---h5--9--7--5--2----h5--9--7--5--1--(2)--(4)-|
G|--------------------------------------------------------------| x2
D|--------------------------------------------------------------|
A|--------------------------------------------------------------|
E|--------------------------------------------------------------|

I'm afraid I don't have the solo at the moment.  I'll try to post it in the future.

Secondary Chorus
e|-12---16--14--12--11----16--14--12--9----16--14--12--7-|
B|-------------------------------------------------------|
G|-------------------------------------------------------| x2
D|-------------------------------------------------------|
A|-------------------------------------------------------|
E|-------------------------------------------------------|




************************************

| /   slide up
| \   slide down
| h   hammer-on
| p   pull-off
| ~   vibrato
| +   harmonic
| x   Mute note
| b   Bend
| pb  Pre-bend
| br  Bend release
| pbr Pre-bend release
| brb Bend release bend

************************************
Добавлено: 20.06.2015
Другие материалы по этой песне:
  • Аккорды и текст

Страница создана 31.01.2014
http://primanota.ru/delirious/touch-chords.htm
Привет, Гость.
Предлагаем пройти революционный курс по гитаре.
Подарок от PrimaNota.Ru, забирай!