PrimaNota.ru - самый крупный в мире бесплатный архив песенных текстов, аккордов, табулатур и нот


Delirious - Summer Of Love - таба, видео

Регистрация Запомнить меня
Войти через:  Facebook Google Twitter Vk Yandex Mail.ru

Delirious - Summer Of Love - таба, видео

Печатать
Просмотров: 84
Уроки эстрадного вокала в Санкт-Петербурге
-------------------------------------------------------------------------------
                             SUMMER OF LOVE - Delirious?
-------------------------------------------------------------------------------

Tuning: Standard

This song is mainly synthesizers, but it does have a catchy intro lick, which is played 
throughout the
song.  It also has a solo.  Both of these are tabbed out here.  You may want to listen to
the song to
figure it out.

Intro Lick (Repeated throughout the song)
e|--------------|
B|--------------|
G|------12-14~--|
D|-0-12---------|
A|--------------|
E|--------------|

Solo
e|-10-10- 9- 9--7-7-5-5--5-5-3-3--3-3-2-2-|
B|-10-10-10-10--8-8-7-7--7-7-5-5--5-5-3-3-|
G|-11-11- 9- 9--7-7-7-7--7-7-4-4--4-4-2-2-|
D|----------------------------------------|
A|----------------------------------------|
E|----------------------------------------|

e|-5-5-3-3--3-3-2-2-|
B|-7-7-5-5--5-5-3-3-|
G|-7-7-4-4--4-4-2-2-|
D|------------------|
A|------------------|
E|------------------|


************************************

| /   slide up
| \   slide down
| h   hammer-on
| p   pull-off
| ~   vibrato
| +   harmonic
| x   Mute note
| b   Bend
| pb  Pre-bend
| br  Bend release
| pbr Pre-bend release
| brb Bend release bend

************************************
Добавлено: 26.06.2015
Другие материалы по этой песне:
  • Аккорды и текст

Страница создана 26.06.2015
http://primanota.ru/delirious/summer-of-love-chords.htm
Привет, Гость.
Предлагаем пройти революционный курс по гитаре.
Подарок от PrimaNota.Ru, забирай!