PrimaNota.ru - самый крупный в мире бесплатный архив песенных текстов, аккордов, табулатур и нот


Delain - See Me In Shadow - текст песни, таба, видео

Регистрация Запомнить меня
Войти через:  Facebook Google Twitter Vk Yandex Mail.ru

Delain - See Me In Shadow - текст песни, таба, видео

Печатать
Просмотров: 295
See me in shadow – Delain
Intro:
E||---3~6--6--6--6---4--3------------------3---4---3------------3---3-------3---6~8---8-------6-|
B||---------------------------6--4---4---6----------------6---6------------6--------------------|
G||---------------------------------------------------------------------------------------------|
D||---------------------------------------------------------------------------------------------|
A||---------------------------------------------------------------------------------------------|
E||---------------------------------------------------------------------------------------------|

E||-------------------------------------3---3---4-----------------3---3---3---4---3-------------|
B||-6---4----------------3---4---6----------------6---4---6---------------------------6---4---3-|
G||----------5---3---5--------------------------------------------------------------------------|
D||---------------------------------------------------------------------------------------------|
A||---------------------------------------------------------------------------------------------|
E||---------------------------------------------------------------------------------------------|

E||----------------|
B||--1~4---3-------|
G||------------5---|
D||----------------|
A||----------------|
E||----------------|

Verse 1:

Cm	Gm		Ab
Standing in the shadow of our lies
	Eb	Gm		Cm
To hide our imperfections
	Gm	Fm	Ab/Gm
Doing anything we can to hide

Cm	Gm		Ab
Eyes wide open but still blind
	Eb	Gm		Cm
To see what really matters
	Gm	Fm
And insecurity won't go
	Eb	G
See me in shadow

Cm	Gm		Ab
Standing by the ruins of your soul
	Eb	Gm		Cm
That cries for some more meaning
	Gm		Ab
Wondering when you have
Eb		Fm
Become so cold

Chorus:

Gm   Ab
So cold
Cm			Ab
And all the pictures of your past are gone
Fm      Gm   Ab
So cold, so cold

Bb
Forget yourself
Bb
And who you are
Gm
Another life is not that far

Verse 2:

Cm		Gm	Ab
Standing by the paintings of your dreams
	Eb	Gm
But you have awoken
Cm		Gm	Fm
And all the purples and the greens
	Eb	Gm		Cm
Have turned to black

	Gm	Ab
And the ruins of your soul
	Eb	Gm	Cm
Have died, no more meaning
	Gm	Ab
I wonder when you have
	Eb 	Fm
Become so cold


Chorus:

Gm   Ab
So cold
Cm			Ab
And all the pictures of your past are gone
Fm      Gm   Ab
So cold, so cold

Bb
Forget yourself
Bb
And who you are
Gm
Another life is not that far

Not that far (2x)


Solo:

Solo:

E||---3~6---6---6---6---4---3--------------------3---4---3------------3---3-------3---6~8---|
B||--------------------------------6---4---4---6----------------6---6------------6----------|
G||-----------------------------------------------------------------------------------------|
D||-----------------------------------------------------------------------------------------|
A||-----------------------------------------------------------------------------------------|
E||-----------------------------------------------------------------------------------------|

E||---8---6----------------------------------------3---3---4----------------3---3---4---3---|
B||------------6---4------------------3---4---6----------------6---4---6--------------------|
G||--------------------5-----3---5----------------------------------------------------------|
D||-----------------------------------------------------------------------------------------|
A||-----------------------------------------------------------------------------------------|
E||-----------------------------------------------------------------------------------------|

E||--------------------------------3---3---3------------------------------------------------|
B||------------------3---4---6----------------6---6---4---3----------------------------3----|
G||---------4---5----------------------------------------------5------3---5---3---5---------|
D||5---7------------------------------------------------------------------------------------|
A||-----------------------------------------------------------------------------------------|
E||-----------------------------------------------------------------------------------------|

E||--------------------------------------------------------------------------------------|
B||--4---3---4---6---4---3-------------------------------3---4---3-----------------------|
G||----------------------------3-------3----------3---5----------------3---5---3---5-----|
D||---------------------------------5--------5-------------------------------------------|
A||--------------------------------------------------------------------------------------|
E||--------------------------------------------------------------------------------------|
 
E||---3~6--6--6--6---4--3-------------------3---4---3------------3---3-------3---6~8---8---6-----|
B||---------------------------6--4---4---6----------------6---6------------6---------------------|
G||----------------------------------------------------------------------------------------------|
D||----------------------------------------------------------------------------------------------|
A||----------------------------------------------------------------------------------------------|
E||----------------------------------------------------------------------------------------------|

E||-------------------------------------3---3---4-----------------3---3---3---4---3--------------|
B||-6---4----------------3---4---6----------------6---4---6---------------------------6---4---3--|
G||----------5---3---5---------------------------------------------------------------------------|
D||----------------------------------------------------------------------------------------------|
A||----------------------------------------------------------------------------------------------|
E||----------------------------------------------------------------------------------------------|

E||----------------|
B||--1~4---3-------|
G||------------5---|
D||----------------|
A||----------------|
E||----------------|
Добавлено: 27.03.2012
Другие материалы по этой песне:

Страница создана 27.03.2012
http://primanota.ru/delain/see-me-in-shadow-chords.htm
Привет, Гость.
Предлагаем пройти революционный курс по гитаре.
Подарок от PrimaNota.Ru, забирай!