PrimaNota.ru - самый крупный в мире бесплатный архив песенных текстов, аккордов, табулатур и нот


Def Leppard - Fractured Love - текст песни, таба, бас-таба, видео

Регистрация Запомнить меня
Войти через:  Facebook Google Twitter Vk Yandex Mail.ru

Def Leppard - Fractured Love - текст песни, таба, бас-таба, видео

Печатать
Просмотров: 166
                              Def leppard –Fractured love solo
                                From the album “Retroactive”
By Sanjeev George and Thomas George
Contact at SanjeevGeorge123@yahoo.co.in

Notations used

| b  bend
| r  release bend
| h  hammer-on
| p  pull-off
| ~  hold note ands let ring
| v  vibrato
| *  drop note with tremolo (optional)
| +  pinch harmonic


e|------------------------------------14h15-----------------------------------------------|
B|--15b17r15b17r15b17r15b17r15b17r15--------13v------15—15b17r15--------------------------|
G|---------------------------------------------------------------14v-----11-12------------|
D|-----------------------------------------------------------------------------9v *-------|
A|----------------------------------------------------------------------------------------|
E|----------------------------------------------------------------------------------------|

e|----------------------------------------------------------8-7------------------|
B|-----------------------------------------------7h8h10v--------8-7v-------------|
G|-------------------------------------------7h9-----------------------7-9v *----|
D|------------------------------------7h9h10-------------------------------------|
A|---5-5+b-7—-5+b-7—-5+b-7-7----7h9h10-------------------------------------------|
E|-------------------------------------------------------------------------------|


e|---12-14-14b15---14------------12-14-15p14-12h14p12----12-------------------|
B|--------------------12-13v--------------------------15----15-13-12v---------|
G|----------------------------------------------------------------------------|
D|----------------------------------------------------------------------------|
A|----------------------------------------------------------------------------|
E|----------------------------------------------------------------------------|

e|----------------------------------------------------------------------------|
B|---12-13-15-13h15p13p12--13-15-13h15p13p12--13-15-13h15p13p12---------------|
G|--------------------------------------------------------------14v-----------|
D|----------------------------------------------------------------------------|
A|----------------------------------------------------------------------------|
E|----------------------------------------------------------------------------|


e|-----------------------------------------12---------------------------------|
B|---15----15----------------------------------15b17—15vvvvvvvvv--------------|
G|---14b16—14b16-14h16p14-------12-14b16--------------------------------------|
D|------------------------14--------------------------------------------------|
A|----------------------------------------------------------------------------|
E|----------------------------------------------------------------------------|
Добавлено: 29.02.2012
Другие материалы по этой песне:
  • Аккорды и текст

Страница создана 29.02.2012
http://primanota.ru/def-leppard/fractured-love-chords.htm
Привет, Гость.
Предлагаем пройти революционный курс по гитаре.
Подарок от PrimaNota.Ru, забирай!