PrimaNota.ru - самый крупный в мире бесплатный архив песенных текстов, аккордов, табулатур и нот


Deep Purple - Gypsys Kiss - текст песни, таба, бас-таба, видео

Регистрация Запомнить меня
Войти через:  Facebook Google Twitter Vk Yandex Mail.ru

Deep Purple - Gypsys Kiss - текст песни, таба, бас-таба, видео

Печатать
Просмотров: 436
Уроки эстрадного вокала в Санкт-Петербурге
Авторы музыки: Roger Glover, Ritchie Blackmore, Ian Gillan

A GYPSY'S KISS

As recorded by Deep Purple
(From the 1984 Album PERFECT STRANGERS)

Words & Music by Ritchie Blackmore, Roger Glover & Ian Gillan

Transcribed by Slowhand


Gtr I (E A D G B E) - 'Ritchie Blackmore - Electric Guitar 1'
Gtr II (E A D G B E) - 'Ritchie Blackmore - Electric Guitar 2'


 Intro 1
  Q=221
  N.C.
 4/4
  Gtr I
  W          W          E E +H.        +W
|----------|----------|-8s6-(6)------|-(6)----|
|----------|----------|-8s6-(6)------|-(6)----|
|----------|----------|--------------|--------|
|----------|----------|--------------|--------|
|----------|----------|--------------|--------|
|----------|----------|--------------|--------|


  |-3-|
  E E E Q  H      W          S     E. +H.        +H.      Q
|---------------|----------|-------------------|-------------|
|-8-------------|----------|-6-----6--(6)------|-(6)---------|
|-6h7p6h7-------|----------|-5pb6r(5)-(5)------|-(5)---------|
|---------------|----------|-------------------|-------------|
|---------------|----------|-------------------|-------------|
|---------------|----------|-------------------|-------------|


                                Gm              N.C.
                            PM       PM|
  |-3-|
  E E E Q  H      H    Q  E E   Q  E E E E Q    E E E E E E E E
|---------------|-------------|---------------|-----------------|
|-2h3p2h3-------|-------------|---------------|-----------------|
|-2h3p2h3-------|-------------|----5-----3----|-2h3p2h3p2h3p2h3-|
|---------------|-------------|----5-----3----|-2h3p2h3p2h3p2h3-|
|---------------|-------------|---------------|-----------------|
|---------------|-----------1-|-3----3-3------|-----------------|


  Q   E  E  +Q    E E    E  E  H    Q    E  E  +H     Q    W
|----13s15-(15)--13---|-10h13p10-------|-8p=6--(6)----3--|-3----||
|---------------------|----------------|-6-(6)-(6)----3--|-3----||
|----10s12-(12)-------|----------------|-----------------|------||
|---------------------|-12----12-------|-----------------|------||
|---------------------|----------------|-----------------|------||
|---------------------|----------------|-----------------|------||


 Intro 2
  N.C.
  PM----------------------------------------------|          PM--------|
  E E E E E E E E   E E E E E E E E   E E E E E E E E   +Q   E E E E E E
|-----------------|-----------------|-----------------|-------------------|
|-----------------|-----------------|-----------------|-------------------|
|-----------------|-----------------|-----------------|-------------------|
|-----------------|-----------------|-----------------|-------------------|
|-----------------|-----------------|---------------3-|-(3)--3-3-3-3-3-3--|
|-3-3-3-3-3-3-3-3-|-3-3-3-3-3-3-3-3-|-3-3-3-3-3-3-3---|-------------------|


  PM------------------------------|
  E E E E E E E E   E E E E E E E E   Q.   a E +Q   Q    +E  Q.   a Q  Q
|-----------------|-----------------|------------------|-------------------|
|-----------------|-----------------|------------------|-------------------|
|-----------------|-----------------|------------------|-----5----7s8--7---|
|-----------------|-----------------|---------------5--|-(5)---------------|
|-----------------|-----------------|-3----3s6-(6)-----|-------------------|
|-3-3-3-3-3-3-3-3-|-3-3-3-3-3-3-3-3-|------------------|-------------------|


    PM----------------------------------------------|          PM--------|
    E E E E E E E E   E E E E E E E E   E E E E E E E E   +Q   E E E E E E
||------------------|-----------------|-----------------|------------------|
||o-----------------|-----------------|-----------------|------------------|
||------------------|-----------------|-----------------|------------------|
||------------------|-----------------|-----------------|------------------|
||o-----------------|-----------------|---------------3-|-(3)--3-3-3-3-3-3-|
||--3-3-3-3-3-3-3-3-|-3-3-3-3-3-3-3-3-|-3-3-3-3-3-3-3---|------------------|


  PM------------------------------|
  E E E E E E E E   E E E E E E E E   Q.   a E +Q   Q    +E  Q.   a Q  Q
|-----------------|-----------------|------------------|-------------------||
|-----------------|-----------------|------------------|-------------------||
|-----------------|-----------------|------------------|-----5----7s8--7---||
|-----------------|-----------------|---------------5--|-(5)---------------||
|-----------------|-----------------|-3----3s6-(6)-----|-------------------||
|-3-3-3-3-3-3-3-3-|-3-3-3-3-3-3-3-3-|------------------|-------------------||


 1st - 3rd Verses
  $
  N.C.
  PM------------------------------------------------------------------|
  E E E E E E E E   E E E E E E E E   E E E E E E E E   E E E E E E E E
|-----------------|-----------------|-----------------|------------------|
|-----------------|-----------------|-----------------|------------------|
|-----------------|-----------------|-----------------|------------------|
|-----------------|-----------------|-----------------|------------------|
|-----------------|-----------------|-----------------|------------------|
|-3-3-3-3-3-3-3-3-|-3-3-3-3-3-3-3-3-|-3-3-3-3-3-3-3-3-|-3-3-3-3-3-3-3-3--|


                                                 F  AmD
  PM------------------------------|
  E E E E E E E E   E E E E E E E E   W          Q  E E +H
|-----------------|-----------------|----------|---------------|
|-----------------|-----------------|----------|-6--5-7-(7)----|
|-----------------|-----------------|----------|-5--5-7-(7)----|
|---------3-3-3-3-|-3-3-3-3-3-3-3-3-|----------|-7--7-7-(7)----|
|-1-1-1-1---------|-----------------|-1--------|---------------|
|-----------------|-----------------|----------|---------------|


  N.C.
                             PM------|     PM----------------|
  Q  H.        E E H.        E E E E E E E E   E E E E E E E E
|------------|-------------|-----------------|------------------|
|------------|-------------|-----------3-----|------------------|
|------------|-------------|-----------3-----|------------------|
|----5-------|-----5-------|-----------------|------------------|
|------------|-------------|-----------------|------------------|
|-3----------|-3-3---------|-3-3-3-3-3-----3-|-3-3-3-3-3-3-3-3--|


                    Cm         N.C.
  PM------------|              PM------|     PM----------------|
  E E E E E E E E   W          E E E E E E E E   E E E E E E E E
|-----------------|----------|-----------------|------------------||
|-----------------|-4--------|-----------3-----|------------------||
|-----------------|-5--------|-----------3-----|------------------||
|-----------------|-5--------|-----------------|------------------||
|-3-3-3-3-3-3-3-3-|----------|-----------------|------------------||
|-----------------|----------|-3-3-3-3-3-----3-|-3-3-3-3-3-3-3-3--||


 Chorus
  N.C.                                                        Am
                                       PM-------------|
  a Q  H.             +W               E E  E E E E E E        W
|-------------------|----------------|----------------------|----------------|
|-------------------|----------------|----------------------|--1-------------|
|------7------------|-(7)------------|----------------------|--2-------------|
|-------------------|----------------|----------------------|--2-------------|
|-3s5---------------|----------------|-0-0--0-0-0-0-0-0-----|----------------|
|-------------------|----------------|----------------------|----------------|
|
| Gtr II
|                            ~~
|                      |-3-|
|   Q  E  E E E E E    E E E H.        E Q.     E E E E       +H.      +Q
|------5--3---------|----------------|---7------5---5-------|----------------|
|-----------6-5---3-|--5h6p5-3-------|------------8---8b10==|=(8)r=====(8)---|
|-------------------|----------------|----------------------|----------------|
|-------------------|----------------|----------------------|----------------|
|-------------------|----------------|----------------------|----------------|
|-------------------|----------------|----------------------|----------------|


  N.C.
  Q  H.        +W           Q  H.        a W
|------------|------------|------------|---------|
|------------|------------|------------|---------|
|----5-------|-(5)--------|----5-------|-5s7\----|
|------------|------------|------------|---------|
|-3----------|------------|-3----------|-3s5\----|
|------------|------------|------------|---------|


                                Em7
  PM------------|
  E E E E E E E E   W           E E E E E E E E   +W
|-----------------|-----------|-----------------|---------|
|-----------------|-----------|-----8-----8---8-|-(8)\----|
|-----------------|-----------|-----7-----7---9-|-(9)\----|
|-----------------|-7\--------|-----9-----9---9-|-(9)\----|
|-----------------|-----------|-----7-----7---7-|-(7)\----|
|-5-5-5-5-5-5-5-5-|-----------|-0-0---0-0-------|---------|


                                      To Coda
  N.C.
                                                ~
  Q  E E +H       +W           Q.   E +Q   Q    W
|---------------|------------|----------------|------|
|---------------|------------|----------------|------|
|---------------|------------|----------------|------|
|------3-(3)----|-(3)--------|-3----2-(2)-----|------|
|---------------|------------|-------------3--|-5----|
|-1--1----------|------------|----------------|------|


                                            Interlude
                                             N.C.
   ~~~                                       PM------------|
  +W           H    H      W                 E E E E E E E E
|------------|-----------|------------||-||------------------|
|------------|-----------|-----------o||-||o-----------------|
|------------|-7s===5s===|=7\---------||-||------------------|
|------------|-7s===5s===|=7\---------||-||------------------|
|-(5)--------|-----------|-----------o||-||o-----------------|
|------------|-----------|------------||-||--3-3-3-3-3-3-3-3-|


  PM--------------------------------------------------------------------|
  E E E E E E E E   E E E E E E E E   +E  E E E E E E E   E E E E E E E E
|-----------------|-----------------|-------------------|------------------|
|-----------------|-----------------|-------------------|------------------|
|-----------------|-----------------|-------------------|------------------|
|-----------------|-----------------|-------------------|------------------|
|-----------------|---------------3-|-(3)-3-3-3-3-3-3-3-|------------------|
|-3-3-3-3-3-3-3-3-|-3-3-3-3-3-3-3---|-------------------|-3-3-3-3-3-3-3-3--|


  PM------------|
  E E E E E E E E   Q.   a E +Q   Q    +E  Q.   a Q  Q
|-----------------|------------------|-------------------||
|-----------------|------------------|------------------o||
|-----------------|------------------|-----5----7s8--7---||
|-----------------|---------------5--|-(5)---------------||
|-----------------|-3----3s6-(6)-----|------------------o||
|-3-3-3-3-3-3-3-3-|------------------|-------------------||


   Guitar Solo
    N.C.
    PM-------------------------------|
                     |-3-|                           |-3-|
    Q  E E E E E E   E E E E E E E E E   E E E E E E E E E
||-----------------|-------------------|-3-5-6-5-3----------|
||o----------3-2---|-2h3p2-------------|-----------6-4p3----|
||-----2-3-5-----5-|-------5-3-2---2-3-|-----------------5--|
||--5--------------|-------------5-----|--------------------|
||o----------------|-------------------|--------------------|
||-----------------|-------------------|--------------------|


              ~  PM---|
  S S S S E E Q  Q    Q  E E E S S E E   E S S E  E E  S S  Q
|-------------------|------------------|-----------------------|
|-4h6p4p3-----------|------------------|-----------------------|
|---------5-4-5--x--|----2---2-5p2-----|-5-7p5------7-11p7-----|
|-------------------|-4----4-------4s7-|-------7s10--------10--|
|-------------------|------------------|-----------------------|
|-------------------|------------------|-----------------------|


  1.
   a  E  E  E  E  E  E  E  E    E  S  S  E  E  E  E  E  S S
|-------------10-------------|-------------------------------||
|----------10----13-11-10----|-10-11p10---------------------o||
|-------11----------------12-|----------12-11-10-------------||
|-10s12----------------------|-------------------12-11-10p8--||
|----------------------------|------------------------------o||
|----------------------------|-------------------------------||


  2.
                                                                    ~~~
  a  Q   E  E  E  E  E  E    E  E  E  E  E  E  E  E     W          +W
|-8s10--------------------|--------------------------||-3--------|-(3)----|
|-------13-11-10----------|--------------------------||----------|--------|
|----------------12-11-10-|--------------------------||----------|--------|
|-------------------------|-12-11-10-------10--------||----------|--------|
|-------------------------|----------13-10----13-10\-||----------|--------|
|-------------------------|--------------------------||----------|--------|


                                    ~~~~~~~~~~~~
  E E E E E E E S S   S S S S S S E H      +Q   E E E E E E
|-3-1-3-1-----------|--------------------|--------0----------|
|---------4-2-4-3p1-|-1p0---1-1----------|-------------------|
|-------------------|-----3-----3---3----|-(3)p=0---4---3----|
|-------------------|-------------5------|------------5---5--|
|-------------------|--------------------|-------------------|
|-------------------|--------------------|-------------------|


            |-3-| |-3-|   |-3-|             |-3-|   |-3-| |-3-| |-3-|
  S S E E E E E E E E E   E E E S S S S E E E E E   E E E E E E E E E E E
|-----------------------|-------------------------|------------------------|
|-----------------------|-------------------------|------------------------|
|-5p3---3-0-5p3p0-5p3p0-|-3p0---3p0---5-3-0-3p0---|-3p0---5p3p0-3p0---3h4s=|
|-----5-----------------|-----5-----5-----------5-|-----5-----------5------|
|-----------------------|-------------------------|------------------------|
|-----------------------|-------------------------|------------------------|


           |-3-|                   |-3-|                        |-3-|
  Q.     E E E E E S S   E S S E E E E E S S S S   E E E. S E E E E E
|--------0-------------|-------------------------|--------------------|
|----------4h5p4p0-----|-------------------------|--------------------|
|-5tr4-------------4h5-|---4h5p4-2---------------|--------------------|
|----------------------|-----------5-2-4-5-4-2---|--------------2h4---|
|----------------------|-----------------------5-|-2--------2-4-----5-|
|----------------------|-------------------------|---4-5--5-----------|


                                          ~
  |-3-| |-3-|         |-3-|   |-3-| |-3-|
  E E E E E E S S S S E E E   E E E E E E H      E E S S S S S S S S +E  S S
|---------------------------|------------------|------------------------------|
|---------------------------|-------------5----|------------------------------|
|-------------------------2-|------------------|-----0h2p0---2h3p1-3-(3)s2-4--|
|-2-----2h5-2-4h5p4p2-4-5---|---2--------------|-2-4-------4------------------|
|---4-5---------------------|-5-----5s6s7------|------------------------------|
|---------------------------|------------------|------------------------------|


                  |-3-|
  S S E S S E S S S S S S S S S
|-------------------------------|
|-----------------------------3-|
|-2h4-5-2h4-5-2-4h5p4p2-4s5-5---|
|-------------------------------|
|-------------------------------|
|-------------------------------|


                PM~~~~~~~
  S S E S S S S S E. +Q       E  E E  E E  E S S  E
|-------------------------||--8------12-8----8p7-----|
|-3-6-3-5h6-5p3-x-5--(5)--||o---10--------10-----10--|
|-------------------------||-------9-----------------|
|-------------------------||-------------------------|
|-------------------------||o------------------------|
|-------------------------||-------------------------|


             |--3--|  |-3-|
  E  E E  E  E  E  E  E E E   E  E E  E E  E S S  E
|---12-8----13p12p10-10p8s7-|-8------12-8----8p7----|
|--------10-----------------|---10--------10-----10-|
|-9-------------------------|------9----------------|
|---------------------------|-----------------------|
|---------------------------|-----------------------|
|---------------------------|-----------------------|


             |--3--|  |-3-|
  E  E E  E  E  E  E  E E E
|---12-8----13p12p10-10p8s7--|
|--------10------------------|
|-9--------------------------|
|----------------------------|
|----------------------------|
|----------------------------|


  E  E  E E  E  E E  E    E E  E  E E E E E
|-8-------8-------8----|----8-------8p0-8p0-|
|---10------10------10-|------10------------|
|------10------10------|-10------10---------|
|----------------------|--------------------|
|----------------------|--------------------|
|----------------------|--------------------|


                    1.
  E E E E E E  E E   E E E E  E E  E E
|-7----------------|--------------------||
|---9---9-----10---|---9-----10p9-10---o||
|-----9---9------9-|-----9-----------9--||
|-----------9------|-9-----9------------||
|------------------|-------------------o||
|------------------|--------------------||


                      Organ Solo
  2.
                       N.C.
  E E E E  E E  E E    Q.   E +H       +W
|-------------------||---------------|--------|
|---9-----10p9-10p9-||---------------|--------|
|-----9-------------||---------------|--------|
|-9-----9-----------||---------------|--------|
|-------------------||-5----5-(5)----|-(5)----|
|-------------------||---------------|--------|


                           ~~~~~~~~~~~~~~
  W          W          Q  H.        +W
|----------|----------|------------|--------|
|----------|----------|------------|--------|
|----------|----------|----2-------|-(2)----|
|----------|----------|------------|--------|
|----------|----------|-0----------|--------|
|----------|----------|------------|--------|


  Q.   E    +Q   +Q     Q.   E +H       Q  H.        +W
|---------------------|---------------|------------|--------|
|---------------------|---------------|------------|--------|
|-4----4b6==(4)r=(4)--|------2-(2)----|------------|--------|
|---------------------|---------------|----3-------|-(3)----|
|---------------------|-0-------------|------------|--------|
|---------------------|---------------|-1----------|--------|


  +W           Q  H.        Q  H.        +W
|------------|------------|------------|--------|
|------------|------------|------------|--------|
|------------|------------|------------|--------|
|-(3)--------|----3\------|------------|--------|
|------------|------------|-5--5-------|-(5)----|
|------------|-1----------|------------|--------|


   D.S. al Coda       &
                         N.C.
  W          W            W           +H.      Q
|----------|----------||-10--------|-(10)----------|
|----------|----------||-----------|-----------x/--|
|----------|----------||-----------|---------------|
|----------|----------||--0--------|--(0)----------|
|----------|----------||-----------|---------------|
|----------|----------||-----------|---------------|


   |--3--|  |--3--|              |--3--|
   E  E  E  E  E  E  S  S  S  S  E  E  E
|-12h13p12----10-------------------------|
|----------13----13p12p10----10----------|
|-------------------------13----13-12-10-|
|----------------------------------------|
|----------------------------------------|
|----------------------------------------|


                            Outro
                             N.C.
                                    PM
   |--3--|
   E  E  E  S  E.  Q   Q     Q  E E E E Q
|-------------------------||---------------|
|-------------------------||---------------|
|----12p10----10-------5--||---------------|
|-12-------12-----12\-----||----5-5-x-3----|
|-----------------12\-----||---------------|
|-------------------------||-3----------3--|


                                                              PM
  E E E E Q  Q    Q  E E E S S S S S S   W           a Q  E E E E Q
|---------------|----------------------|-----------|-------------------|
|---------------|----------------------|-----------|-------------------|
|---------------|----------------------|-----------|-------------------|
|-5-5-5-3----5--|----5-5-3-3h5p3h5p3p0-|-----------|------5-5-x-3------|
|---------------|----------------------|-3\--------|-------------------|
|---------3-----|-3--------------------|-----------|-1s3----------3----|


               |-3-|
  E E E S S Q  E E E   Q.   a E +Q   Q    +E  Q.   a Q  Q    Q  H.
|--------------------|------------------|------------------|------------|
|--------------------|------------------|------------------|----6b8=====|
|--------------------|------------------|-----5----7s8--7--|------------|
|-5-3---5p3p0--5p3h5-|---------------5--|-(5)--------------|------------|
|--------------------|-3----3s6-(6)-----|------------------|------------|
|--------------------|------------------|------------------|------------|


          |-3--|           |-3-|
  +H     +Q  Q Q   E E E E E E E E E
|----------------|-----3---3---3---3-|
|-(6)----(6)-6-6-|-6-6---6---6---6---|
|----------------|-------------------|
|----------------|-------------------|
|----------------|-------------------|
|----------------|-------------------|


  E E E E E E E E    E   E E E   E E E   E
|-3-----3-----3----|-----3-3-----3-3-----3--|
|---6-6---6-6---6r-|-6b8-----6b8-----6b8----|
|------------------|------------------------|
|------------------|------------------------|
|------------------|------------------------|
|------------------|------------------------|


  E E   E E E   E E E   E E   E E E   E E E
|-3-----3-3-----3-3-3-|-3-----3-3-----3-3-----|
|---6b8-----6b8-------|---6b8-----6b8-----6b8-|
|---------------------|-----------------------|
|---------------------|-----------------------|
|---------------------|-----------------------|
|---------------------|-----------------------|


  E E E   E E E   E E   E   E E E   E E E   E
|-3-3-----3-3-----3-3-|-----3-3-----3-3-----3--|
|-----6b8-----6b8-----|-6b8-----6b8-----6b8----|
|---------------------|------------------------|
|---------------------|------------------------|
|---------------------|------------------------|
|---------------------|------------------------|


  E E   E E E   E E E     E E E   E E E   E E
|-3-----3-3-----3-3-----|-3-3-----3-3-----3-3-|
|---6b8-----6b8-----6b8-|-----6b8-----6b8-----|
|-----------------------|---------------------|
|-----------------------|---------------------|
|-----------------------|---------------------|
|-----------------------|---------------------|


  E   E E E   E E E   E   E E   E E E   E E E
|-----3-3-----3-3-----3-|-3-----3-3-----3-3------|
|-6b8-----6b8-----6b8---|---6b8-----6b8-----6b8--|
|-----------------------|------------------------|
|-----------------------|------------------------|
|-----------------------|------------------------|
|-----------------------|------------------------|


  E E E   E E E   E E   E   E E E   E E E   E
|-3-3-----3-3-----3-3-|-----3-3-----3-3-----3-|
|-----6b8-----6b8-----|-6b8-----6b8-----6b8---|
|---------------------|-----------------------|
|---------------------|-----------------------|
|---------------------|-----------------------|
|---------------------|-----------------------|


  E E   E E E   E E S S      +Q    E E E E E E
|-3-----3-3-----3-3-3------|-------3---3-----3-|
|---6b8-----6b8-------6b8==|=(6)r----6---6-3---|
|--------------------------|-------------------|
|--------------------------|-------------------|
|--------------------------|-------------------|
|--------------------------|-------------------|


        ~~~~~~~~~~~
                             |-3-| |-3-| |-3-| |-3-|
  E   E Q     +E   E E   E   E E E E E E E E E E E E   E E H.
|-----3------------3-----3-|-6p3---6p3---6p3---6p3---|-3---------|
|-------6b8===(6)r---6b8---|-----0-----0-----0-----6-|---6s8-----|
|-5b7----------------------|-------------------------|-----------|
|--------------------------|-------------------------|-----------|
|--------------------------|-------------------------|-----------|
|--------------------------|-------------------------|-----------|


                                       ~~~~~~~~~~
                                                  |-3-|
  E E E E S S E E S S   E E S S E E E +Q     +Q   E E E  E  E  E  S S
|-6---6---------------|--------------------|--------------------------|
|---8---8-8p6---6-8p6-|---6-8p6---6-8-(8)--|-(8)--6-7-8-10-11-10-10p8-|
|-------------7-------|-7-------7----------|--------------------------|
|---------------------|--------------------|--------------------------|
|---------------------|--------------------|--------------------------|
|---------------------|--------------------|--------------------------|


                                 ~~
                |-3-|
   E S  S  E E  E E E E  E   E E H.        E E E S S E E S S E
|--------------------------|-------------|---------------------|
|--------------------------|-------------|---------------------|
|-10-7----10p8----7h8p7----|-------------|-3---3-5p3---3-5p3---|
|------10------10-------10-|-8p7-5-------|---5-------5-------5-|
|--------------------------|-------------|---------------------|
|--------------------------|-------------|---------------------|


                      ~~~~~~~~                           ~~~
              |-3-|
  S S E S S E E E E E E   +W           Q.   E +Q   Q    +W
|-----------------------|------------|----------------|--------|
|-----------------------|------------|-8----6-(6)--8--|-(8)----|
|-5p3p0-5p3p0-5p3-5p3---|------------|----------------|--------|
|---------------------5-|-(5)--------|-5----3-(3)--5--|-(5)----|
|-----------------------|------------|----------------|--------|
|-----------------------|------------|----------------|--------|


  C    Bb     C            N.C.
  Q.   E +Q   Q    +H       Q  Q
|----------------|----------------|
|-8----6-(6)--8--|-(8)\-----------|
|-5----3-(3)--5--|-(5)\-----------|
|-5----3-(3)--5--|-(5)\----/5-----|
|----------------|----------------|
|----------------|----------------|


  Q  Q  +S  S E E E   S S E E E S S E E S S
|-------------------|-------------------------|
|-3-----------------|-------------------------|
|----5--(5)p3---3---|-----------------3-3p0---|
|-------------5---5-|-5p3---3-5-5p3-----------|
|-------------------|-----5---------5---------|
|-------------------|-------------------------|


  S S E E E S S E E E   S S E E E S S E E E   S S E E E S S E E E
|---------------------|---------------------|----------------------|
|---------------------|---------------------|----------------------|
|---------------------|---------------------|----------------------|
|-5p3---3-5-5p3---3-5-|-5p3---3-5-5p3---3-5-|-5p3---3-5-5p3---3-5--|
|-----5---------5-----|-----5---------5-----|-----5---------5------|
|---------------------|---------------------|----------------------|


              ~~~~~~~
                            |-3-|               |-3-|
  S S E E E S E. +Q     E E E E E S S S S E E   E E E S S S S Q   E S S
|---------------------|-----------------------|-------------------------|
|---------------------|-----------------3-4-6-|-4-----3h4p3-------3-----|
|---------------------|-2-3-5p3h5-6p5-5-------|---5-5-------5-5\--2-3-3-|
|-5p3---3-5-3h5--(5)--|-----------------------|---------------5\--------|
|-----5---------------|-----------------------|-------------------------|
|---------------------|-----------------------|-------------------------|


                       ~~
  |-3-| |-3-|                                           |--3--|  |--3--|
  E E E E E E Q  E E   H.      E  E        +Q     E  E  E  E  E  E  E  E
|--------------------|------------------|--------10----------------------|
|-------------6----6-|-6---------13b15==|=(13)r-----13-11-11----11-11----|
|-3-5p3-3-5h7----7---|---------0--------|--------------------12-------12-|
|--------------------|------------------|--------------------------------|
|--------------------|------------------|--------------------------------|
|--------------------|------------------|--------------------------------|


               ~~
   E  E  E  E  Q  E  E        +Q     E  E      +E    E  E      +E
|-------------------13-----|-(13)---13--------------13--------------|
|-------------------13b15==|=(13)r-----13b15==(13)r----13b15==(13)r-|
|-10h12-10----10-----------|----------------------------------------|
|----------12--------------|----------------------------------------|
|--------------------------|----------------------------------------|
|--------------------------|----------------------------------------|


   E  E      +E    E  E      +E    E  E        +E    E  E      +E    E  E      +E    E
|-13--------------13--------------13--------|-------13--------------13--------------13--|
|----13b15==(13)r----13b15==(13)r----13b15==|=(13)r----13b15==(13)r----13b15==(13)r-----|
|-------------------------------------------|-------------------------------------------|
|-------------------------------------------|-------------------------------------------|
|-------------------------------------------|-------------------------------------------|
|-------------------------------------------|-------------------------------------------|


   E      +E    E  E      +E    E  +Q      +Q    E  E      +E    E  E      +E
|--------------13--------------13-(13)--|-(13)--13--------------13--------------|
|-13b15==(13)r----13b15==(13)r----------|----------13b15==(13)r----13b15==(13)r-|
|---------------------------------------|---------------------------------------|
|---------------------------------------|---------------------------------------|
|---------------------------------------|---------------------------------------|
|---------------------------------------|---------------------------------------|


   E  E      +E    E  +Q    E  E        +E    E  E      +E    E  E      +E    E
|-13--------------13-(13)--13--------|-------13--------------13--------------13--|
|----13b15==(13)r-------------13b15==|=(13)r----13b15==(13)r----13b15==(13)r-----|
|------------------------------------|-------------------------------------------|
|------------------------------------|-------------------------------------------|
|------------------------------------|-------------------------------------------|
|------------------------------------|-------------------------------------------|


   E     E  E      E  E  E  E  E   E  E      E  E   E       E E  E
|-------13--------13----13----13-|-------------------------13------|
|-13b15----13pb15----13----13----|---13b14==13-13r-13pb15=======13-|
|--------------------------------|---------------------------------|
|--------------------------------|---------------------------------|
|--------------------------------|---------------------------------|
|--------------------------------|---------------------------------|


   E  E  E  E  E  E  E  E    E  +Q    E       +Q    Q     W
|-13-------13-------13----|----------13------(13)--13--|-13-----*|
|----13-13----13-13----13-|-13r(13)--13pb15==(13)--13--|-13r----*|
|-------------------------|----------------------------|--------*|
|-------------------------|----------------------------|--------*|
|-------------------------|----------------------------|--------*|
|-------------------------|----------------------------|--------*|


Duration Legend
---------------
W - whole; H - half; Q - quarter; E - 8th; S - 16th; T - 32nd; X - 64th; a - acciaccatura
+ - note tied to previous; . - note dotted; .. - note double dotted
Uncapitalized letters represent notes that are staccato (1/2 duration)
Irregular groupings are notated above the duration line
Duration letters will always appear directly above the note/fret number it represents the
duration for.  Duration letters with no fret number below them represent rests.  Multi-
bar rests are notated in the form Wxn, where n is the number of bars to rest for.  Low
melody durations appear below the staff

Tablature Legend
----------------
 h   - hammer-on
 p   - pull-off
 b   - bend
 pb  - pre-bend
 r   - bend release (if no number after the r, then release immediately)
 /\  - slide into or out of (from/to "nowhere")
 s   - legato slide
 S   - shift slide
  - natural harmonic
[n]  - artificial harmonic
n(n) - tapped harmonic
 ~   - vibrato
 tr  - trill
 T   - tap
 TP  - trem. picking
 PM  - palm muting
\n/  - tremolo bar dip; n = amount to dip
 \n  - tremolo bar down
 n/  - tremolo bar up
/n\  - tremolo bar inverted dip
 =   - hold bend; also acts as connecting device for hammers/pulls
 <>  - volume swell (louder/softer)
 x   - on rhythm slash represents muted slash
 o   - on rhythm slash represents single note slash

Misc Legend
-----------
 |  - bar
||  - double bar
||o - repeat start
o|| - repeat end
*|  - double bar (ending)
 :  - bar (freetime)
 $  - Segno
 &  - Coda
Tempo markers -  = BPM(8/16=s8/s16), where s8 = swing 8ths, s16 = swing 16ths
Добавлено: 27.08.2015
Другие материалы по этой песне:

Страница создана 17.03.2012
http://primanota.ru/deep-purple/gypsys-kiss-chords.htm
Привет, Гость.
Предлагаем пройти революционный курс по гитаре.
Подарок от PrimaNota.Ru, забирай!