PrimaNota.ru - самый крупный в мире бесплатный архив песенных текстов, аккордов, табулатур и нот


Deep Purple - Almost Human - текст песни, таба, видео

Регистрация Запомнить меня
Войти через:  Facebook Google Twitter Vk Yandex Mail.ru

Deep Purple - Almost Human - текст песни, таба, видео

Печатать
Просмотров: 175
Авторы музыки: Ian Paice, Roger Glover, Jon Lord, Steve Morse, Ian Gillan

||--------5-4-3-------------------------------------------------------|
||*-6-5-3-------6-5-3-------3-1-------1-------------------------------|
||--------------------5-4-2-----2-1h2---2-1-0-------2-0-----4-0-----5-|
||--------------------------------------------3-2-0-----3-0-----3-0---|
||*-------------------------------------------------------------------|
||--------------------------------------------------------------------|

---------------------------------------------------------||----------|
---------------5-------6-------8b10---------------------*||----------|
-2-0---7-5-------7-5-----7-5-5---------------------------||----------|
-----0-----7-7-------7-----------------------------------||----------|
--------------------------------------------------------*||--------0-|
---------------------------------------------------------||---/3b1---|

----------------------------|-----------------------------------------|
----------------------------|-----------------------------------------|
-----{2}~-4b5-2-----2---4b5-|----2~---0-------------------------------|
-----------------------5-2---2-----|-----------2-1-0------------------|
-3-0------------------------|-----------------3-2-0----0-5-0-3-0------|
----------------------------|-----------------------5b-----------{5}~-|

------|-----------------------------|-----------------------------------|
------|-----------------------------|---------13-10--------------13-10--|
------|--------------5b-2-----2~----|-12b14---------14~--12b14----------|
------|----------2-4------4-2----4-|------------------------------------|
------|----2-3-4--------------------|-----------------------------------|
------|--5--------------------------|-----------------------------------|

------------------------------|-------------------5-------5-----5------|
-----3-5----------------------|-4-1-3---1h2-------5-------5-----5------|
-14-----5b-2-------2-5b6-2-0-|-5-0-2---0---2-1/2---2-1/2---1/2---1/2---|
--------------2-4-2-----------|-------2--------------------------------|
------------------------------|----------------------------------------|
------------------------------|----------------------------------------|

-5-32---------------------------------------|--------------------------|
-5-32-54-3-5-------------------------------|-12b14---10------10--------|
----------------5-4-2h4p2h4p2-----------------|------------9-12----12--|
------------------------------5-2-4-2---------|------------------------|
--------------------------------------3b4-2-0-|------------------------|
----------------------------------------------|------------------------|

-8----------------------------5|-------------12-15-14-13---------------|
---8-10-12b14-------10----10---|-15b17-------------------17-16-15-14---|
---------------9-12----12-------|--------------------------------------|
--------------------------------|--------------------------------------|
--------------------------------|--------------------------------------|
--------------------------------|--------------------------------------|

--------------------|-----------------------------------------------|--|
----14-15-16-17-17~-|-13--------------------------------------------|--|
-17-------------17~-|----16-14-12----------14-----------------------|--|
--------------------|-------------14-13h14----1312-10--------------|---|
--------------------|----------------------------------12-10-12-12-|---|
--------------------|-----------------------------------------------|--|

-12~--------------------------------------------|------15-17-17b18~---|
-13~--13----------------------------------------|--/17----------------|
---------14----14-5---7---5b-------------------|----------------------|
------------14-------7---7-----7-x--------------|---------------------|
-----------------------------------3b-----------|---------------------|
--------------------------------------{5}~------|---------------------|

--17-15b-17----------------------17-19-20-21-20-19-17-------------------|
------------20--r-b2-r-b2-r18-19----------------------20-19-17----------|
---------------------------------------------------------------20-19-18-|
------------------------------------------------------------------------|
------------------------------------------------------------------------|
------------------------------------------------------------------------|

----------------------------------|
----------17-20-------------------|
-17-19b20-------19b20-------------|
----------------------------------|
----------------------------------|
----------------------------------|
Добавлено: 28.06.2013
Другие материалы по этой песне:
  • Аккорды и текст

Страница создана 28.06.2013
http://primanota.ru/deep-purple/almost-human-chords.htm
Привет, Гость.
Предлагаем пройти революционный курс по гитаре.
Подарок от PrimaNota.Ru, забирай!