PrimaNota.ru - самый крупный в мире бесплатный архив песенных текстов, аккордов, табулатур и нот


Death Cab For Cutie - El Dorado - таба, видео

Регистрация Запомнить меня
Войти через:  Facebook Google Twitter Vk Yandex Mail.ru

Death Cab For Cutie - El Dorado - таба, видео

Печатать
Просмотров: 152
-------------------------------------------------------------------------------
                             EL DORADO - Death Cab for Cutie
-------------------------------------------------------------------------------
Tabbed by: coltoncarr
E-mail: coltonthomascarr@yahoo.com

Tuning: Standard

e|---------------------------------------------------------------------------|
B|---------------------------------------------------------------------------|
G|-------2-------3-------2-------0---0-----------0---0-----------------------|
D|---0-------0-------0-------0-----------3---3-----------3---3---3-----------|X2
A|-1---1---1---1---1---1---1---1---1---1---1---1---1---1---1---1-------------|
E|---------------------------------------------------------------------------|

e|---------------------------------------------------------------------------|
B|---------------------------------------------------------------------------|
G|--------0---------------0---------------0----------------------------------|
D|----8-------8---8---8-------8---8---5-------5---5---5---5---5---5----------|X2
A|-/6---6---6---6---5---5---5---5---3---3---3---3----------------------------|
E|--------------------------------------------------3---3---3---3------------|



************************************

| /   slide up
| \   slide down
| h   hammer-on
| p   pull-off
| ~   vibrato
| +   harmonic
| x   Mute note
| b   Bend
| pb  Pre-bend
| br  Bend release
| pbr Pre-bend release
| brb Bend release bend

************************************
Добавлено: 05.09.2015
Другие материалы по этой песне:
  • Аккорды и текст

Страница создана 05.09.2015
http://primanota.ru/death-cab-for-cutie/el-dorado-chords.htm
Привет, Гость.
Предлагаем пройти революционный курс по гитаре.
Подарок от PrimaNota.Ru, забирай!