PrimaNota.ru - самый крупный в мире бесплатный архив песенных текстов, аккордов, табулатур и нот


Death Cab For Cutie - Tiny Vessels Demo - таба, видео

Регистрация Запомнить меня
Войти через:  Facebook Google Twitter Vk Yandex Mail.ru

Death Cab For Cutie - Tiny Vessels Demo - таба, видео

Печатать
Просмотров: 51
-------------------------------------------------------------------------------
                             SONG NAME - Band Name
-------------------------------------------------------------------------------
Tabbed by:
E-mail:

Tuning: standard
Capo:2
For the things in parentheses I wasn't really sure which one was correct so
you can choose what you think is right.

  intro:
e|----3-------3--------------------------------------------------------------|
B|----------------------3-------3---------0-------0---------0-------0--------|
G|--4-----4------4----4-----4------4----------------------0-----0-----(0)----|
D|2-----2---2----------------------------------------------------------------|
A|------------------3-----3---3---------2-----2------2--0-----0---0---(0)----|
E|------------------------------------3-----3---3----------------------------|

  verse:
e|----3-------3--------------------------------------------------------------|
B|----------------------3-------3---------0-------0---------0-------0--------|
G|--4-----4------4----4-----4------4----------------------0-----0-----(0)----|
D|2-----2---2----------------------------------------------------------------|
A|------------------3-----3---3---------2-----2------2--0-----0---0---(0)----|
E|------------------------------------3-----3---3----------------------------|
                                      (lightly strum here)

  other guitar:
e|:-------------------------------------------------------------------------:|
B|:0-0-3-5-5-5-8-3-3-3-8-10-12-12-10-8-10-5---------------------------------:|
G|:-------------------------------------------------------------------------:|
D|:-------------------------------------------------------------------------:|
A|:-------------------------------------------------------------------------:|
E|:-------------------------------------------------------------------------:|

e||:3-5-3-----3-5-3-----:|2--------------------------------------------------|
B||:0-0-0-----0-0-0-----:|3--------------------------------------------------|
G||:0-4-0-----0-4-0-----:|2--------------------------------------------------|
D||:2-4-2-----2-4-2-----:|0--------------------------------------------------|
A||:3-5-2-2-0-3-5-2-2-0-:|x--------------------------------------------------|
E||:0-0-0-3-3-0-0-0-3-3-:|x--------------------------------------------------| 

************************************

| /   slide up
| \   slide down
| h   hammer-on
| p   pull-off
| ~   vibrato
| +   harmonic
| x   Mute note
| b   Bend
| pb  Pre-bend
| br  Bend release
| pbr Pre-bend release
| brb Bend release bend

************************************
Добавлено: 08.02.2016
Другие материалы по этой песне:
  • Аккорды и текст

Страница создана 08.02.2016
http://primanota.ru/death-cab-for-cutie/tiny-vessels-demo-chords.htm
Привет, Гость.
Предлагаем пройти революционный курс по гитаре.
Подарок от PrimaNota.Ru, забирай!