PrimaNota.ru - самый крупный в мире бесплатный архив песенных текстов, аккордов, табулатур и нот


Death Cab For Cutie - Bigsby Canyon Bridge - бас-таба, видео

Регистрация Запомнить меня
Войти через:  Facebook Google Twitter Vk Yandex Mail.ru

Death Cab For Cutie - Bigsby Canyon Bridge - бас-таба, видео

Печатать
Просмотров: 126
Bixby Canyon Bridge Bass Line
by Death Cab for Cutie

Tuning: Standard

Bass comes in at :32

0:32
G|---------------------|     G|-------------|
D|---------------------| x3  D|-------------|
A|-------------3~------|     A|-------------|
E|1~-----------------1~|     E|1~-----------|

1:16
G|---------------------|     G|----------------------------|
D|---------------------| x3  D|----------------------------|
A|-------------3~------|     A|----------------------------|
E|1~-----------------1~|     E|1~----1x--1x1X------1x--1x1x|

1:38
G|-------------------|
D|-------------------| x3
A|----------3333-----|
E|1111-1111------3333|

G|------------------------|
D|------------------------|
A|------------------------|
E|1111-1111-5555\-0000~---|

G|------------------------------------5~------------------------------------|
D|---3~--------25~---------3~-------25-----------------3~--------25~--------|
A|--3------0235-----------3------023------------------3------0235-----------|
E|11---------------3333-11------------------3335\---11---------------3333---|

2:17
G|------------------------|    G|------------------------|
D|------------------------| x3 D|------------------------|
A|555555555555888888888888|    A|555555555555------------|
E|------------------------|    E|------------111111111111|

2:40
G|-----------------------------|
D|-----------------------------|
A|555555/101010----------------|
E|-------------888-111111111111|

3:02 (@)
G|--------------------------------|
D|--------------------------------|
A|555555/101010-------------------|
E|-------------888-111111-1h333h55|

     (#) (11-11-11-11h13-11------------------| are the eleventh and thirteenth fret)
G|-------------------------------------------|
D|-------------------------------------------|
A|555555/101010------------------------------|
E|-------------888-111111-11-11-11-11h13-11--|

Okay so the @ and # signs are there for a reason when there's a @ play that segment, the 
that segment

It goes: @,@,@,@,#,@,@,#,@,@,@,@,#,@,#

4:25
G|-------------------------------------------|
D|-------------------------------------------|
A|555555/101010------------------------------|
E|-------------888-1111111111111111111111111~|

There you go... I'm confident this is 100% correct.
This is how I play it you can change it up a bit if you feel the need to.
Rate and let me know if there's any corrections (I might've forgotten a part)
Добавлено: 02.01.2014
Другие материалы по этой песне:
  • Аккорды и текст

Страница создана 02.01.2014
http://primanota.ru/death-cab-for-cutie/bigsby-canyon-bridge-chords.htm
Привет, Гость.
Предлагаем пройти революционный курс по гитаре.
Подарок от PrimaNota.Ru, забирай!