PrimaNota.ru - самый крупный в мире бесплатный архив песенных текстов, аккордов, табулатур и нот


Death Cab For Cutie - I will follow - таба, видео

Регистрация Запомнить меня
Войти через:  Facebook Google Twitter Vk Yandex Mail.ru

Death Cab For Cutie - I will follow - таба, видео

Печатать
Просмотров: 92



Date: Fri, 07 Apr 2006 04:27:37 -0500
From: Justin Holton 
Subject: d/death_cab_for_cutie/i_will_follow.tab

Artist: Death Cab for Cutie
Song:   I Will Follow
Album:  Plans


*IMPORTANT * Death Cab plays this with a capo on the 5th fret 
If you do not use a capo you will not be playing the song in
the correct key  Tonally, the song is in Dm.. not Am.

Rhythm Notes: Light palm muting on the larger strings, while
allowing the b string to ring out.



Part I - INTRO/CHORUS  (Capo 5th)

   Am              C               F               C       G/B
e|-------------------------------|-------------------------------|
b|-------1--------------1--------|------1---------------1-----3--|
g|-----2----2---2-----0----0---0-|----------2---2-----0-----0----|
d|-2----------2----2---------2---|----3-------3------------------|
a|-0---------------3-------------|-3---------------3------2------|
E|-------------------------------|-1-----------------------------|


   Am              C               G
e|-------------------------------|-------------------------------|
b|-------1--------------1--------|------3--------3-------3-------|
g|-----2----2---2-----0----0---0-|---------0--------0-------0----|
d|-2----------2----2---------2---|---0--------0--------0-------0-|
a|-0---------------3-------------|-------------------------------|
E|-------------------------------|-3-----------------------------|


   Am              C               E               Am      Am/G
e|-------------------------------|-------------------------------|
b|-------1--------------1--------|------0---------------1------1-|
g|-----2----2---2-----0----0---0-|----------1---1-----2------2---|
d|-0h2--------2----2---------2---|----2-------2-------2------2---|
a|-0---------------3-------------|-2---------------0-------------|
E|-------------------------------|-0-----------------------3-----|


   F               Fm              C
e|-------------------------------|-------------------------------|
b|------1----------1----1--------|-------1--------------1--------|
g|----------2---2--1-------1---1-|-----0----0---0-----0----0---0-|
d|----3-------3----3--3------3---|-2----------2----2---------2---|
a|-3---------------3-------------|-3---------------3-------------|
E|-1---------------1-------------|-------------------------------|



Part II - VERSES (Capo 5th)
Note: Repeat this sequence as often as necessary.

   C                               Am
e|-------------------------------|-------------------------------|
b|-------1--------------1--------|-------1--------------1--------|
g|-----0----0---0-----0----0---0-|-----2----2---2-----2----2---2-|
d|-2----------2----2---------2---|-2----------2----2---------2---|
a|-3---------------3-------------|-0---------------0-------------|
E|-------------------------------|-------------------------------|


   F                               C               G
e|-------------------------------|-------------------------------|
b|------1---------------1--------|-------1--------------3--------|
g|----------2---2----------2---2-|-----0----0---0----------0---0-|
d|----3-------3-------3------3---|-2----------2-------0------0---|
a|-3---------------3-------------|-3-----------------------------|
E|-1---------------1-------------|-----------------3-------------|



Part III - ENDING (Capo 5th)
Note: Replace last two bars of CHORUS with these.

   F               Fm              C          C/B  Am        Am/G
e|-------------------------------|-------------------------------|
b|------1----------1----1--------|-------1--------------1--------|
g|----------2---2--1-------1---1-|-----0----0---0-----2----0---0-|
d|----3-------3----3--3------3---|-2---------------2-------------|
a|-3---------------3-------------|-3----------2----0-------------|
E|-1---------------1-------------|---------------------------3---|


   F               Fm              C
e|-------------------------------|-------------------------------|
b|------1----------1-------------|-1-----------------------------|
g|----------2---2--1-------------|-0-----------------------------|
d|----3-------3----3-------------|-2-----------------------------|
a|-3---------------3-------------|-3-----------------------------|
E|-1---------------1-------------|-------------------------------|


Questions, Comments.. method36man@hotmail.com

_________________________________________________________________


Добавлено: 08.12.2013
Другие материалы по этой песне:
  • Аккорды и текст

Страница создана 08.12.2013
http://primanota.ru/death-cab-for-cutie/i-will-follow-chords.htm
Привет, Гость.
Предлагаем пройти революционный курс по гитаре.
Подарок от PrimaNota.Ru, забирай!