PrimaNota.ru - самый крупный в мире бесплатный архив песенных текстов, аккордов, табулатур и нот


Dead By April - More Than Yesterday - текст песни, таба, видео

Регистрация Запомнить меня
Войти через:  Facebook Google Twitter Vk Yandex Mail.ru

Dead By April - More Than Yesterday - текст песни, таба, видео

Печатать
Просмотров: 555
Уроки эстрадного вокала в Санкт-Петербурге
Artist : Dead By April
Song   : More Than Yesterday (Demo Version)
Album  : Stronger
Tuning : (Drop D) D A D G B e
Tabbed by: "$YLENT"
E-mail Address: seph_aina@yahoo.com (FB and YM)

This is not 100%. Ear-tabbed and will do. ^^

Intro - Techno [Silent]
-------------

Intro - (0:07 - 0:19)

e|-------------------------------------------------------| 
B|-------------------------------------------------------|
G|-------------------------------------------------------|
D|-1-11-11-1-1--1-11-1-11-11--6-66-66-6-6--6-66-6-66-66--|      (2x)
A|-1-11-11-1-1--1-11-1-11-11--6-66-66-6-6--6-66-6-66-66--|
D|-1-11-11-1-1--1-11-1-11-11--6-66-66-6-6--6-66-6-66-66--|
     ** **        **   ** **    ** **        **   ** **

Note: [This is {Ones} Not {Elevens}]


Verse - (0:20 - 0:31)

e|--------------------------------------| 
B|--------------------------------------|
G|--------------------------------------|
D|-11-11--11-11--11-11--11-11--111-111--|
A|-11-11--11-11--11-11--11-11--111-111--|
D|-11-11--11-11--11-11--11-11--111-111--|
                               ***

e|---------------------------------------------------------------------------| 
B|---------------------------------------------------------------------------|
G|---------------------------------------------------------------------------|
D|-33-33--33-33--33-33--33-33--333-333--66-66--66-66--66-66--66-66--666-666--|
A|-33-33--33-33--33-33--33-33--333-333--66-66--66-66--66-66--66-66--666-666--|
D|-33-33--33-33--33-33--33-33--333-333--66-66--66-66--66-66--66-66--666-666--|
   ** **  ** **  ** **  ** **  *** ***  ** **  ** **  ** **  ** **  *** ***

e|--------------------------------------| 
B|--------------------------------------|
G|--------------------------------------|
D|-88-88--88-88--88-88--88-88--888-888--|
A|-88-88--88-88--88-88--88-88--888-888--|
D|-88-88--88-88--88-88--88-88--888-888--|
   ** **  ** **  ** **  ** **  *** ***

Verse 2 - (0:32 - 0:43)


e|---------------------------------------------------------------------------| 
B|---------------------------------------------------------------------------|
G|---------------------------------------------------------------------------|
D|-11-11--11-11--11-11--11-11--111-111--33-33--33-33--33-33--33-33--333-333--|
A|-11-11--11-11--11-11--11-11--111-111--33-33--33-33--33-33--33-33--333-333--|
D|-11-11--11-11--11-11--11-11--111-111--33-33--33-33--33-33--33-33--333-333--|
   ** **  ** **  ** **  ** **  *** ***  ** **  ** **  ** **  ** **  *** ***

e|---------------------------------------------------------------------------| 
B|---------------------------------------------------------------------------|
G|---------------------------------------------------------------------------|
D|-66-66--66-66--66-66--66-66--666-666--88-88--88-88--88-88--88-88--888-888--|
A|-66-66--66-66--66-66--66-66--666-666--88-88--88-88--88-88--88-88--888-888--|
D|-66-66--66-66--66-66--66-66--666-666--88-88--88-88--88-88--88-88--888-888--|
   ** **  ** **  ** **  ** **  *** ***  ** **  ** **  ** **  ** **  *** ***


CHORUS - (0:44 - 1:06)

e|-------------------------------------------------------------------------------------| 
B|-------------------------------------------------------------------------------------|
G|-------------------------------------------------------------------------------------|
D|-1-1-1-1-1-1-1-1-111--8-8-8-8-8-8-8-8-888--6-6-6-6-6-6-6-6-666--8-8-8-8-8-8-8-8-888--|
A|-1-1-1-1-1-1-1-1-111--8-8-8-8-8-8-8-8-888--6-6-6-6-6-6-6-6-666--8-8-8-8-8-8-8-8-888--|
D|-1-1-1-1-1-1-1-1-111--8-8-8-8-8-8-8-8-888--6-6-6-6-6-6-6-6-666--8-8-8-8-8-8-8-8-888--|
                   ***                  ***                  ***                  ***

e|---------------------------------------------------------------------------------| 
B|---------------------------------------------------------------------------------|
G|---------------------------------------------------------------------------------|
D|-1-1-1-1-1-1-1-1-111--8-8-8-8-8-8-8-8-888--6-6-6-6-6-6-6-6-666--8-8-8-8-8-8-8-8--|
A|-1-1-1-1-1-1-1-1-111--8-8-8-8-8-8-8-8-888--6-6-6-6-6-6-6-6-666--8-8-8-8-8-8-8-8--|
D|-1-1-1-1-1-1-1-1-111--8-8-8-8-8-8-8-8-888--6-6-6-6-6-6-6-6-666--8-8-8-8-8-8-8-8--|
                   ***                  ***                  ***                  

Intro (Repeat) - (1:08 - 1:13)

e|-------------------------------------------------------| 
B|-------------------------------------------------------|
G|-------------------------------------------------------|
D|-1-11-11-1-1--1-11-1-11-11--6-66-66-6-6--6-66-6-66-66--|      
A|-1-11-11-1-1--1-11-1-11-11--6-66-66-6-6--6-66-6-66-66--|
D|-1-11-11-1-1--1-11-1-11-11--6-66-66-6-6--6-66-6-66-66--|
     ** **        **   ** **    ** **        **   ** **

Verse 3 - (1:14 - 1:25)

e|---------------------------------------------------------------------------| 
B|---------------------------------------------------------------------------|
G|---------------------------------------------------------------------------|
D|-11-11--11-11--11-11--11-11--111-111--33-33--33-33--33-33--33-33--333-333--|
A|-11-11--11-11--11-11--11-11--111-111--33-33--33-33--33-33--33-33--333-333--|
D|-11-11--11-11--11-11--11-11--111-111--33-33--33-33--33-33--33-33--333-333--|
   ** **  ** **  ** **  ** **  *** ***  ** **  ** **  ** **  ** **  *** ***

e|---------------------------------------------------------------------------| 
B|---------------------------------------------------------------------------|
G|---------------------------------------------------------------------------|
D|-66-66--66-66--66-66--66-66--666-666--88-88--88-88--88-88--88-88--888-888--|
A|-66-66--66-66--66-66--66-66--666-666--88-88--88-88--88-88--88-88--888-888--|
D|-66-66--66-66--66-66--66-66--666-666--88-88--88-88--88-88--88-88--888-888--|
   ** **  ** **  ** **  ** **  *** ***  ** **  ** **  ** **  ** **  *** ***



CHORUS - (1:26 - 1:48)

e|-------------------------------------------------------------------------------------| 
B|-------------------------------------------------------------------------------------|
G|-------------------------------------------------------------------------------------|
D|-1-1-1-1-1-1-1-1-111--8-8-8-8-8-8-8-8-888--6-6-6-6-6-6-6-6-666--8-8-8-8-8-8-8-8-888--|
A|-1-1-1-1-1-1-1-1-111--8-8-8-8-8-8-8-8-888--6-6-6-6-6-6-6-6-666--8-8-8-8-8-8-8-8-888--|
D|-1-1-1-1-1-1-1-1-111--8-8-8-8-8-8-8-8-888--6-6-6-6-6-6-6-6-666--8-8-8-8-8-8-8-8-888--|
                   ***                  ***                  ***                  ***

e|---------------------------------------------------------------------------------| 
B|---------------------------------------------------------------------------------|
G|---------------------------------------------------------------------------------|
D|-1-1-1-1-1-1-1-1-111--8-8-8-8-8-8-8-8-888--6-6-6-6-6-6-6-6-666--8-8-8-8-8-8-8-8--|
A|-1-1-1-1-1-1-1-1-111--8-8-8-8-8-8-8-8-888--6-6-6-6-6-6-6-6-666--8-8-8-8-8-8-8-8--|
D|-1-1-1-1-1-1-1-1-111--8-8-8-8-8-8-8-8-888--6-6-6-6-6-6-6-6-666--8-8-8-8-8-8-8-8--|
                   ***                  ***                  ***                  


Post-Chorus - (1:49 - 2:07)

e|--------------------------------------------------------------------------------| 
B|--------------------------------------------------------------------------------|
G|--------------------------------------------------------------------------------|
D|-1-1-1-1-1-1-1-1--0--1-1-1-1-1-1-1-1--1--8-8-8-8-8-8-8-8--8--6-6-6-6-6-6-6-6----|
A|-1-1-1-1-1-1-1-1--0--1-1-1-1-1-1-1-1--1--8-8-8-8-8-8-8-8--8--6-6-6-6-6-6-6-6----|
D|-1-1-1-1-1-1-1-1--0--1-1-1-1-1-1-1-1--1--8-8-8-8-8-8-8-8--8--6-6-6-6-6-6-6-6----|


e|----------------------------------------| 
B|----------------------------------------|
G|----------------------------------------|
D|-1-1-1-1-1-1-1-1-1--1--8-8-8-8-8-8-8-8--|
A|-1-1-1-1-1-1-1-1-1--1--8-8-8-8-8-8-8-8--|
D|-1-1-1-1-1-1-1-1-1--1--8-8-8-8-8-8-8-8--|

Bridge - (2:08 - 2:25) 

e|------------------------------------------------------| 
B|------------------------------------------------------|
G|------------------------------------------------------|
D|-1-1-1111-11-11--0--1-1-1111-11-11-0--8-8-8888-88-88--|       
A|-1-1-1111-11-11--0--1-1-1111-11-11-0--8-8-8888-88-88--|
D|-1-1-1111-11-11--0--1-1-1111-11-11-0--8-8-8888-88-88--|
   * * **** ** **     * * **** ** **    * * **** ** **

e|------------------------------------------------------| 
B|------------------------------------------------------|
G|------------------------------------------------------|
D|-1-1-1111-11-11--0--6-6-6666-66-66-0--8-8-8888-88-88--|       
A|-1-1-1111-11-11--0--6-6-6666-66-66-0--8-8-8888-88-88--|
D|-1-1-1111-11-11--0--6-6-6666-66-66-0--8-8-8888-88-88--|
   * * **** ** **     * * **** ** **    * * **** ** **

(2:26 - 2:33) [Silent]


CHORUS - (2:34 - 2:57)

e|-------------------------------------------------------------------------------------| 
B|-------------------------------------------------------------------------------------|
G|-------------------------------------------------------------------------------------|
D|-1-1-1-1-1-1-1-1-111--8-8-8-8-8-8-8-8-888--6-6-6-6-6-6-6-6-666--8-8-8-8-8-8-8-8-888--|
A|-1-1-1-1-1-1-1-1-111--8-8-8-8-8-8-8-8-888--6-6-6-6-6-6-6-6-666--8-8-8-8-8-8-8-8-888--|
D|-1-1-1-1-1-1-1-1-111--8-8-8-8-8-8-8-8-888--6-6-6-6-6-6-6-6-666--8-8-8-8-8-8-8-8-888--|
                   ***                  ***                  ***                  ***

e|-------------------------------------------------------------------------------------| 
B|-------------------------------------------------------------------------------------|
G|-------------------------------------------------------------------------------------|
D|-1-1-1-1-1-1-1-1-111--8-8-8-8-8-8-8-8-888--6-6-6-6-6-6-6-6-666--8-8-8-8-8-8-8-8-888--|
A|-1-1-1-1-1-1-1-1-111--8-8-8-8-8-8-8-8-888--6-6-6-6-6-6-6-6-666--8-8-8-8-8-8-8-8-888--|
D|-1-1-1-1-1-1-1-1-111--8-8-8-8-8-8-8-8-888--6-6-6-6-6-6-6-6-666--8-8-8-8-8-8-8-8-888--|
                   ***                  ***                  ***                  ***


Outro - (2:59 - 3:17)

e|-------------------------------------------------------------------------------| 
B|-------------------------------------------------------------------------------|
G|-------------------------------------------------------------------------------|
D|-11111111111111-00-11111111111111--00--8888888888888888--00--6666666666666666--|
A|-11111111111111-00-11111111111111--00--8888888888888888--00--6666666666666666--|
D|-11111111111111-00-11111111111111--00--8888888888888888--00--6666666666666666--|


e|--------------------------------------| 
B|--------------------------------------|
G|--------------------------------------|
D|-11111111111111-00-88888888888888888--|
A|-11111111111111-00-88888888888888888--|
D|-11111111111111-00-88888888888888888--|


Techno Ending - (3:18 - 3:29)


That's my 1st Tab ever! My 1st try. ^^
A great song from Dead by April, my FAVORITE!

WatchOut for my NEXT tab: Farewell by Red Lipstick Letter
Catch it if you know it! xD

Add me up! :) (seph_aina@yahoo.com) FB and YM


 $ Y L E N T
Добавлено: 28.06.2013
Другие материалы по этой песне:
  • Аккорды и текст

Страница создана 28.06.2013
http://primanota.ru/dead-by-april/more-than-yesterday-chords.htm
Привет, Гость.
Предлагаем пройти революционный курс по гитаре.
Подарок от PrimaNota.Ru, забирай!