PrimaNota.ru - самый крупный в мире бесплатный архив песенных текстов, аккордов, табулатур и нот


Dark Tranquillity - Single Part Of Two - текст песни, таба, видео

Регистрация Запомнить меня
Войти через:  Facebook Google Twitter Vk Yandex Mail.ru

Dark Tranquillity - Single Part Of Two - текст песни, таба, видео

Печатать
Просмотров: 116
Уроки эстрадного вокала в Санкт-Петербурге
------------------------------------------------------
DARK TRANQUILLITY - SINGLE PART OF TWO (SOLO)
---------------------------------------------------------
Tabbed by: Niger B         MSN MESSENGER: Nova_55@hotmail.com
 
Notation Guide:
 
h - hammer on
p - pull off
b - bend string
r - release bend
/ - slide up
\ - slide down
~ - vibrato
t - right hand tap
 
Tune down to standard C#:        C# F# B E G# C#
 
This is just the solo:
e:---------------------------------15----------------------------
B:------12~~-----12-13-15-15b(17)-------r15~~--------------------
G:--14b----------------------------------------------------------
D:---------------------------------------------------------------
A:---------------------------------------------------------------
E:---------------------------------------------------------------
 
e:--14-15-12-14----12--------------------------------------------
B:--------------15----13-15-12-13----13-12 13-15-13-12-----------
G:--------------------------------14-------------------14--------
D:--------------------------------------------------------14~~---
A:---------------------------------------------------------------
E:---------------------------------------------------------------
 
e:--19----17----------------17-19----17--------------------------
B:-----20----19-20-17-19-20-------20----19-20-17-19----17--------
G:--------------------------------------------------19----16~~---
D:---------------------------------------------------------------
A:---------------------------------------------------------------
E:---------------------------------------------------------------
 
e:---------------------------------------------------------------
B:--17b(19)r17~~-12h13h15-12~~------12h13h15-12~~----------------
G:-----------------------------14~~------------------------------
D:---------------------------------------------------------------
A:---------------------------------------------------------------
E:---------------------------------------------------------------
 
e:---------------------------------------------------------------
B:-----12--13h15-12~~--------12--13h15-12~~--------12-13h15------
G:--14--------------------14--------------------14---------------
D:----------------------------------------------------------14~~-
A:---------------------------------------------------------------
E:---------------------------------------------------------------
 
Any corrections, then mail me. Jonb.brown27@ntlworld.com

     
Добавлено: 16.09.2013
Другие материалы по этой песне:

Страница создана 08.03.2012
http://primanota.ru/dark-tranquillity/single-part-of-two-chords.htm
Привет, Гость.
Предлагаем пройти революционный курс по гитаре.
Подарок от PrimaNota.Ru, забирай!