PrimaNota.ru - самый крупный в мире бесплатный архив песенных текстов, аккордов, табулатур и нот


Dark Tranquillity - The One Brooding Warning - текст песни, таба, видео

Регистрация Запомнить меня
Войти через:  Facebook Google Twitter Vk Yandex Mail.ru

Dark Tranquillity - The One Brooding Warning - текст песни, таба, видео

Печатать
Просмотров: 124
-----------------------------------------------------------------------------
NOTES:

Tuning: Tune down half step (1:Eb, 2:Bb, 3:Gb, 4:Db, 5:Ab, 6:Eb)

Timing: Timing is somewhat indicative to the relative lengths!!!

Notation: When two guitars are listed play all guitars simultaneously.
	b = full bend   \ = slide down          ah = artificial
	h = hammer-on   / = slide up                 harmonic 
	p = pull-off    . = palm mute 
-----------------------------------------------------------------------------                

Intro Riff A
|--------------------------------------------------------------|
|--------------------------------------------------------------|
|--------------------------------------------------------------|
|--------------------------------------------------------------|
|-10-7-7-7----7-7-10-7-7-7-10-7-7-7-7----7-7-10-7-7-7-9-6-6-6-6|
|--------------------------------------------------------------|

		    (End of Intro Riff A)
|----------------------------------------|
|----------------------------------------|
|----------------------------------------|
|----------------------------------------|
|----6-6-9-6-6-6-9-6-6-6-6----6-6-9-6-6-6|
|----------------------------------------|
  
 Intro Riff B (listen to the song, then you'll know how to play it)
|----------------------------------------------------------------------|
|----------------------------------------------------------------------|
|----------------------------------------------------------------------| GTR I
|-10777777777710777771077777777777107777796666666666696666696666666666-|
|----------------------------------------------------------------------|
|----------------------------------------------------------------------|
|                                                                  ____|
|-----------------------------------------------------------------|
|-----------------------------------------------------------------|
|-------9-------9-------9-------9-------9-------9-------9-------9-| GTR II
|-777777--777777--777777--777777--666666--666666--666666--666666--|
|-----------------------------------------------------------------|
|-----------------------------------------------------------------|

 Play Intro Riff A again with these notes in the beginning.
|-----------------|
|-----------------|
|-----------------|
|-----------------|
|-10-7-7-7-7-etc.-|
|-----------------|

 Riff C            sweep
|------------------------------------------------------------|
|----------------------12-13-12-10---------------------------|
|--------------------12------------12-11-9-11-12-11~ah-------| GTR I
|-2-2-2-2-----------14---------------------------------------|
|-2-2-2-2----------------------------------------------------|
|-0-0-0-0----------------------------------------------------|
| . . . .                                                    |
|---------12-------------------------------------------------|
|------------12----------------------------------------------|
|---------------12-9~----------------------------------------| GTR II
|-2-2-2-2----------------------------------------------------|
|-2-2-2-2----------------------------------------------------|
|-0-0-0-0----------------------------------------------------|
  . . . . 

 (continuation of Riff C)  
|-------------------------------------------------------------|
|-------------------------------------------------------------|
|-------------------------------------------------------------| GTR I
|-2-2-2-2-9--5---9~----------7~---------5~--------------------|
|-2-2-2-2------7-------5-5-5------3-3-3-----------------------|
|-0-0-0-0-----------------------------------------------------|
| . . . .
|-------------------------------------------------------------|
|---------12-8------------------------------------------------|
|--------------9------/11----12p11-9----11~\------------------| GTR I
|-2-2-2-2--------9~-------------------------------------------|
|-2-2-2-2-----------------------------------------------------|
|-0-0-0-0-----------------------------------------------------|
  . . . .

 (continuation of Riff C) (Remember note about timing here)
|-------------------------------------------------------------|
|-------------------------------------------------------------|
|-------------------------------------------------------------| GTR I
|-2-2-2-2-9--5---9~----7-7-7------5-5-5-----------------------|
|-2-2-2-2------7-------------5~---------3~--------------------|
|-0-0-0-0-----------------------------------------------------|
| . . . .                                                     |
|----------------------12-10h12p10-8--8-10-8------------------|
|---------12-8----------------------12------12-10-12~\--------|
|--------------9----------------------------------------------| GTR II
|-2-2-2-2--------9~-------------------------------------------|
|-2-2-2-2-----------------------------------------------------|
|-0-0-0-0-----------------------------------------------------|
  . . . .


 (continuation of Riff C)                      (end of Riff C)
|-------------------------------------------------------------|
|----------------------12-13-12-10----------------------------|
|---------------------12-----------12-11-9-11-12-11ah~--------| GTR I
|-2-2-2-2------------14---------------------------------------|
|-2-2-2-2-----------------------------------------------------|
|-0-0-0-0-----------------------------------------------------|
| . . . .                                                     |
|---------12--------------------------------------------------|
|------------12-------/12-13-12-10----------------------------|
|---------------12-9~--------------12-11-9-11-12-11ah~--------| GTR II
|-2-2-2-2-----------------------------------------------------|
|-2-2-2-2-----------------------------------------------------|
|-0-0-0-0-----------------------------------------------------|
  . . . .

 Riff D
|------------------------------------------7------|
|-------7~---------7~8~--------7~---10-8-7---10-8-|
|-----9----------9-----------9--------------------|
|---9----------9-----------9----------------------|
|-7----------7-----------7------------------------|
|-------------------------------------------------|
  . . .
  _____________________________
 |1.
 (continuation of Riff D)
|--------------7---------------|
|-10-101010-10---10-8~---8-7-8-|
|------------------------------| GTR I
|------------------------------|
|------------------------------|
|------------------------------|
|                              |
|------------------------------|
|------------------------------|
|------------------------------| GTR II
|-7---------7--5---------5-----|
|-5--5-5-5--5--3--3-3-3--3-----|
|------------------------------|
     . . .        . . .
  ____________________________
 |2.
 (continuation of Riff D)
|-7--7-7-7-7------------------|
|-------------10-8-7~--7-8-10-|
|-----------------------------| GTR I
|-----------------------------|
|-----------------------------|
|-----------------------------|
|                             |
|-----------------------------|
|-----------------------------|
|-----------------------------| GTR II
|-7--------7--4---------------|
|-5--5-5-5-5--2--2-2-2-2-3-5--|
|-----------------------------|
     . . .       . . .
 Play Riff D again (with vocals) for a total of 2 times
 
 When vocals start, guitar II plays the following:
|-------------------------------------------------|
|-------7~---------7~8~--------7~---7------8-7----|
|-----9----------9-----------9---------9-7------9-| GTR II
|---9----------9-----------9----------------------|
|-7----------7-----------7------------------------|
|-------------------------------------------------|
  . . .
 and continues playing Riff D the same as above.

 Riff E                                        (end of Riff E)
|-------------------------------------------------------------|
|-------------------------------------------------------------|
|-------------------------------------------------------------| GTR I &
|-5-------------5------4-----2--------------2--------0--2-----| GTR II
|--2222222222222-222222-22222-00000000000000-000000-----------|  
|-------------------------------------------------------------|  
   ............. ...... ..... .............. ......
Play Riff E 3 times for a total of 4 times

 Riff F (let ring)
|-------------------------------------------------------------------|
|-------------------10--10--12--12\---------------------------------|
|-------------------9---9---11--11\-----------------9---9---9-------| GTR I
|-9-----------------7---7---9---9\----------4---4---9---9---9-------|
|-10--10---9~---9---7---7-----------2---2---5---5---7---7---7-------|
|-----------------------------------3---3---------------------------|
|                                                                   |
|-------------------------------------------------------------------|
|----------12---------------------------------------10------10------|
|-12-------11-------9-------7-------12------7-------9-------9-------| GTR II
|-9--------9--------9-------7-------9-------7-------7-------7-------|
|-10----------------7-------5-------10------5-----------------------|
|-------------------------------------------------------------------|

 (continuation of Riff F)
|----------------------------------------------------------------|
|----------------------------------------------------------------|
|----------------------------------------------------------------| GTR I
|--------------------------------------------------------7~------|
|---------10-9~--10-7~-7-9-10-9~--9/10-10~--10\9-9~--9/10--------|
|--7~----7-------------------------------------------------------|
|                                                                |
|----------------------------------------------------------------|
|----------12--------------------------------------------10------|
|-12-------11-------9---------7--------12--------7-------9-------| GTR II
|-9--------9--------9---------7--------9---------7-------7-------|
|-10----------------7---------5--------10------------------------|
|----------------------------------------------------------------|

 (continuation of Riff F)
|-----------------------|
|-----------------------|
|-----------------------| GTR I
|-10--9~----------------|
|-----------------------|
|-----------------------|
|                       |
|-----------------------|
|-10-----10-----10------|
|-9------9------9-------| GTR II
|-7-7777-7-7777-7-------|
|-----------------------|
|-----------------------|
    ....   ....

 (continuation of Riff F)
|----------------------------------------------------|
|----------------------------------------------------|
|---------------------------------12-----11~----12---| GTR I
|--9~----------------------9~------------------------|
|----------------------------------------------------|
|----------------------------------------------------|
|                                                    |
|----------------------------------------------------|
|---------------------------------12-----12-----12---|
|---------------------------------11-----11-----11---| GTR II
|-9-----------9-----------9-------9-9999-9-9999-9-99-|
|-10-10101010-10-10101010-10-1010--------------------|
|----------------------------------------------------|
     . . . .     . . . .     . .    ....   ....   ..

 (continuation of Riff F)
|---------------------------------------|
|---------------------------------------|
|-9~---------9-11-12-11~-----------11/12| GTR I
|---------------------------------------|
|---------------------------------------|
|---------------------------------------|
|                                       |
|---------------------------------------|
|---------------------------------------|
|-9------9------9----7------7------7----| GTR II
|-9------9------9----7------7------7----|
|-7-7777-7-7777-7-77-5-5555-5-5555-5-55-|
|---------------------------------------|
    ....   ....   ..   ....   ....   ..

 (continuation of Riff F)
|----------------------------------------------------|
|----------------------------------------------------|
|-12~---------------------12\11---11~-----------11/12| GTR I
|----------------------------------------------------|
|----------------------------------------------------|
|----------------------------------------------------|
|                                                    |
|----------------------------------------------------|
|----------------------------------------------------|
|---------------------------------7------7------7----| GTR II
|-9-----------9-----------9-------7-7777-7-7777-7-77-|
|-10-10101010-10-10101010-10-1010--------------------|
|----------------------------------------------------|
     . . . .     . . . .     . .    ....   ....   ..

		      (end of Riff F)
|------------------------------------|
|-10~--------------------------------|
|---------------10---9~--------------| GTR I
|------------------------------------|
|------------------------------------|
|------------------------------------|
|                                    |
|------------------------------------|
|-10-----10-----10---10--------------|
|-9------9------9----9------9~ah\----| GTR II
|-7-7777-7-7777-7-77-7-7777----------|
|------------------------------------|
|------------------------------------|
    ....   ....   ..   ....
 
 Riff G                                    (end of Riff G)
|---------------------------------------------------------|
|---------------------------------------------------------|
|---------------------------------------------------------| GTR II
|-5----------5-----4------2-----------4-------0--2~-------|
|----2~---------2~----2~-----0-----------0----------------|
|---------------------------------------------------------|
 GTR II plays Riff E 1 more time for a total of 2 times

 Played over Riff G
|----------------------------------------------------|
|----------------------------------------------------|
|-----------12-11~------12-9~------9-11-12-11~-------| GTR I
|-9~------9------------------------------------------|
|----------------------------------------------------|
|----------------------------------------------------|

 (continuation)                                    (end)
|-------------------------------------------------------|
|------------------------------------10~------13-12~----|
|-11/12-12~------12\11-11~------11/12-------------------| GTR I
|-------------------------------------------------------|
|-------------------------------------------------------|
|-------------------------------------------------------|

 Play Riff E again 2 times

 Riff H
|--------------------------------------|
|--------------------------------------|
|--------------------------------------| GTR I & GTR II
|--------------------------------------|
|-7-7-10-7-10-7-10-7-9-7-9-7-10-7-10-7-|
|--------------------------------------|

 (continuation of Riff H)          
|-----------------------------------|
|-----------------------------------|
|-----------------------------------| GTR I & GTR II
|-----------------------------------|
|-----7---7---7-------------7---7---|
|-8-8---8---8---8-10-8-10-8---8---8-|

 (continuation of Riff H)
|-----------------------------------------------------|
|-----------------------------------------------------|
|-----------------------------------------------------| GTR I & GTR II
|-----4---4---4-----------4---4-5~---4----------4-5-7-|
|-5-5---5---5---5-7-5-7-5---5----------7-5-7~---------|
|-----------------------------------------------------|

 (continuation of Riff H)
|------------------------------------|
|------------------------------------|
|-4-4-7-4-7-4-7-4-66666666-4-7-4-7-4-| GTR I
|------------------------------------|
|------------------------------------|
|------------------------------------|
|                                    |
|------------------------------------|
|------------------------------------|
|------------------------------------| GTR II
|-5-5-8-5-8-5-8-5-77777777-5-8-5-8-5-|
|------------------------------------|
|------------------------------------|
				     
 (continuation of Riff H)
|------------------------------------|
|------------------------------------|
|-----4---4---4--------------4---4---| GTR I
|-5-5---5---5---5-77777777-5---5---5-|
|------------------------------------|
|------------------------------------|
|                                    |
|------------------------------------|
|------------------------------------|
|------------------------------------| GTR II
|-2-2-5-2-5-2-5-2-44444444-2-5-2-5-2-|
|------------------------------------|
|------------------------------------|

 (continuation of Riff H)                   (End of Riff H)
|----------------------------------------------------------|
|----------------------------------------------------5-7\--|
|-----6---6---6--------------6---6-7~---6-4---4~--6-7------| GTR I
|-7-7---7---7---7-99999999-7---7------------7--------------|
|----------------------------------------------------------|
|----------------------------------------------------------|
|                                                          |
|----------------------------------------------------------|
|----------------------------------------------------5-7\--|
|---------------------------------/7~---6-4---4~--6-7------| GTR II
|-4-4-7-4-7-4-7-4-55555555-4-7-4-7----------7--------------|
|----------------------------------------------------------|
|----------------------------------------------------------|

 Play Riff C again, starting with the continuation of Riff C
 In other words, don't play the first bar!!!

 Play Riff D again, with GTR II playing the "vocal part"
 Look at Riff D for reference (the harmony stuff)

 Play Riff E 4 times
 Solo over Riff E (starting the 3rd time)
|------------------------------------------------|
|------------------------------------8-8-10------|
|------------------------------------------9-9~--|
|-9-7-5--5---5h7p5-9-7-5---5---5h7p5-------------|
|------9---7------------9---7--------------------|
|------------------------------------------------|

|-----------------------10-----------------------10----------------|
|-12---10------10-12-13----12-13-10-12---10h12h13---12-13-10-12----|
|----9----9-12-------------------------12-----------------------12-|
|------------------------------------------------------------------|
|------------------------------------------------------------------|
|------------------------------------------------------------------|

|----------12----10----------------|
|-10h12h13----13----12-13-10-12-13-|
|----------------------------------|
|----------------------------------|
|----------------------------------|
|----------------------------------|
				   
 Play Riff H again
 Solo continues over Riff H
|--------------/12~---14-15~---------14h15p14-14~-\--------|
|-12~------------------------------------------------------|
|----------------------------------------------------------| GTR II
|----------------------------------------------------------|
|----------------------------------------------------------|
|----------------------------------------------------------|
|                                                          |
|-------/12~-----------------------------------------------|
|---------------------15-12~-------------------------------|
|----------------------------------------------------------| GTR III
|----------------------------------------------------------|
|----------------------------------------------------------|
|----------------------------------------------------------|
 ** If someone can figure out the harmony for the rest of the solo 
    let me know!!
 
 Play Intro Riff A again
 Second time GTR II plays the following:
|-------------------------------------------------------------|
|-------------------------------------------------------------|
|/9---------------/9------/9---------------/9------/8---------| GTR II
|---7-7-7-7----7-7---7-7-7---7-7-7-7----7-7---7-7-7---6-6-6-6-|
|-------------------------------------------------------------|
|-------------------------------------------------------------|

		    (End of Intro Riff A)
|----------------------------------------|
|----------------------------------------|
|-------/8------/8---------------/8------| GTR II
|----6-6---6-6-6---6-6-6-6----6-6---6-6-6|
|----------------------------------------|
|----------------------------------------|

 Break
|-------------|
|-------------|
|-------------| GTR I & GTR II
|-2-2-2-2-----|
|-2-2-2-2-----|
|-0-0-0-0-----|
  . . . .

 GTR II plays first two bars of Riff F again following with Riff G
 At the end of Riff F (GTR II) there's a slight change:
|------------------------------|
|-10-----------10--------------|
|-9------------9------9~\------|
|-7------7777777---------------|
|------------------------------|
|------------------------------|
 
 GTR I plays lead the following over Riff F and G:
|---------------------------------------------------------------|
|---------------------------------------------------------------|
|---------------------------------------------------------------| GTR I
|---------------------------------------------------------------|
|-----------10-9~-----10-7~---7-9-10-9~-----9/10~-----10\9~-----|
|-7~------7-----------------------------------------------------|

|-----------------------------------------------------------|
|-----------------------------------------------------------|
|---------------------------------------12-11-----12-9------| GTR I
|------7~-----10-9~----------9~-----9-9---------------------|
|-9-10------------------------------------------------------|
|-----------------------------------------------------------|

|------------------------------------------------------------------|
|-----------------------------------------------10~-----10-12-10~\-|
|-9-11-12-11~-----9-12~-----12-12-11~-----11-12--------------------| GTR I
|------------------------------------------------------------------|
|------------------------------------------------------------------|
|------------------------------------------------------------------|

 Play Riff E two times again
 The second and last time play the following:
|---------------------------------------------------------------|
|---------------------------------------------------------------|
|---------------------------------------------------------------| GTR I &
|-5-------------5------4-----2--------------2--------0-0-2-2----| GTR II
|--2222222222222-222222-22222-00000000000000-000000----------2--|  
|---------------------------------------------------------------|  
   ............. ...... ..... .............. ......

Any questions, comments and corrections???
Mail me at: chquarpeenee@milnet.co.yu
Добавлено: 24.07.2012
Другие материалы по этой песне:

Страница создана 10.03.2012
http://primanota.ru/dark-tranquillity/the-one-brooding-warning-chords.htm
Привет, Гость.
Предлагаем пройти революционный курс по гитаре.
Подарок от PrimaNota.Ru, забирай!