PrimaNota.ru - самый крупный в мире бесплатный архив песенных текстов, аккордов, табулатур и нот


Dark Tranquillity - Mine Is The Grandeur - аккорды и текст, видео

Регистрация Запомнить меня
Войти через:  Facebook Google Twitter Vk Yandex Mail.ru

Dark Tranquillity - Mine Is The Grandeur - аккорды и текст, видео

Печатать
Просмотров: 139
Авторы музыки: Martin Henriksson, Niklas Sundin

Mine Is The Grandeur
Dark Tranquillity
.  - palm mute                          /  - slide up
to                       
  - slide down to                      ~  - vibrato  
                         
"  - tremelo picking 


Dark Tranquillity - Mine Is The Grandeur....

Tune To E  (E,A,D,G,B,E)


Riff A 
-------|
|-7--------7---6---|
|-8--------8---6---|
|-9--------9---6---|
|-9--------9---8---|
|-7--------7---9---|



Riff B 
|-6-4-6----4-6-7--6-4-6---6-7---6-4-6-|
--------------------------|
--------------------------|Gtr I
--------------------------|
--------------------------|
--------------------------|
|                              h      |
----------------7-7-9-7-6-|
---9--7-6-----------------|
|---8---------------------------------|Gtr II
--------------------------|
--------------------------|
--------------------------|
|                                     |
--------------------------|
|-------7---7---7---7---7---7---7---7-|
|-------8---8---8---8---8---8---8---8-|Gtr III
|-----8---8---8---8---8---8---8---8---|
|-----6---6---6---6---6---6---6---6---|
--------------------------|


           h p p
|---------2-4-2-1--2-1---2-4------7---|
--------------------------|
--------------------------|Gtr I
--------------------------|
--------------------------|
--------------------------|
|                                     |
|--4--4/6-------------------------h---|
-------7-6-----6-9---79-7-|
-------------7------------|Gtr II
--------------------------|
--------------------------|
--------------------------|
|                                     |
--------------------------|
|-------6---6---6---6---6---6---6---6-|
|-------7---7---7---7---7---7---7---7-|Gtr III
|-----8---8---8---8---8---8---8---8---|
|-----5---5---5---5---5---5---5---5---|
--------------------------|


Repeat Riff B (3 Times)


Riff C
|-6-4-6---------------6------------------|
-----------------------------|
-----------------------------|Gtr I
-----------------------------|
-----------------------------|
-----------------------------|
|                                        |
-----------------------------|
|-----4---------------4------------------|
-----------------------------|Gtr II
-----------------------------|
-----------------------------|
-----------------------------|
|                                        |
----------------------2---4--|
|-----7---7---7---7-6-7---7---7---2---4--|
|-----8---8---8---8-6-8---8---8---3---5--|Gtr III
|-----8---8---8---8-8-8---8---8---4---6--|
|-----6---6---6---6-6-6---6---6---4---6--|
----------------------2---4--|



|-6-------------4-6---------64-----44----|
--7---------------7---7------|
-----------------------------|Gtr I
-----------------------------|
-----------------------------|
-----------------------------|
|                                        |
-----------------------------|
|-4-----------4---4----------------------|
----6------------------------|Gtr II
-----------------------------|
-----------------------------|
-----------------------------|
|                                        |
------------------2--2--4--4-|
|-7---7---7---7-6-7---7---7---2--2--4--4-|
|-8---8---8---8-6-8---8---8---3--3--5--5-|Gtr III
|-8---8---8---8-8-8---8---8---4--4--6--6-|
|-6---6---6---6-6-6---6---6---4--4--6--6-|
------------------2--2--4--4-|



Riff D.1
|-466----------------------------------------------|
---------------------------------------|
---------------------------------------|Gtr
I
---------------------------------------|
---------------------------------------|
---------------------------------------|
|                                                  |
----------------------------2-2-4-4----|
----------------------------2-2-4-4----|
|------8-8-6------8-8-6-----8-8-6----8--3-3-5-5----|Gtr
II
----------------------------4-4-6-6----|
|---6----6-----6----6----6----6---6-----4-4-6-6----|
----------------------------2-2-4-4----|
|                                                  |
----------------------------2-2-4-4----|
|---7--777-6---7--777-6--7--777--777-77-2-2-4-4----|
|---8--888-6---8--888-6--8--888--888-88-3-3-5-5----|Gtr
III
|---8--888-8---8--888-8--8--888--888-88-4-4-6-6----|
|---6--666-6-6-6--666-6--6--666--666-66-4-4-6-6----|
----------------------------2-2-4-4----|



Keep Playing Gtrs II & III From Riff D.1 Underneath of
Riff D.2
Riff D.2
---------h------6-6-6----------6-------------6-|
|-6-6-6-----97-6-6-6-7-7---------9-7--7-9---9-6~--6-7-9---|
|--------66------------------------------------------------|Gtr
I
-----------------------------------------------|
-----------------------------------------------|
-----------------------------------------------|

---------h------6-6-6-8-6----------------------|
|-6-6-6-----97-6-6-6-7-7--------------7-7-7-9-6~--6-------|
|--------66------------------------------------------8-----|Gtr
I
-----------------------------------------------|
-----------------------------------------------|
-----------------------------------------------|

Repeat Riff D.2 (3 1/2 Times)

Then Play This...
---------h------6-6-6-8-6----------------------|
|-6-6-6-----97-6-6-6-7-7--------------7-7-7-9-6-7-6-------|
|--------66------------------------------------------8-----|Gtr
I
-----------------------------------------------|
-----------------------------------------------|
-----------------------------------------------|


Repeat Riff B (3 1/2 Times)

Then End The song with this...

           h p p
|---------2-4-2-1--2-1---2-4------7----6-4-6-|
---------------------------------|
---------------------------------|Gtr I
---------------------------------|
---------------------------------|
---------------------------------|
|                                            |
|--4--4/6-------------------------h----------|
-------7-6-----6-9---797---6-----|
-------------7-----------------8-|Gtr II
-------------------------------8-|
---------------------------------|
---------------------------------|
|                                            |
---------------------------------|
|-------6---6---6---6---6---------6--------7-|
|-------7---7---7---7---7---------7--------8-|Gtr III
|-----8---8---8---8---8---8---8-------8----8-|
|-----5---5---5---5---5---5---5-------5----6-|
---------------------------------|
Добавлено: 07.07.2012
Другие материалы по этой песне:

Страница создана 22.04.2012
http://primanota.ru/dark-tranquillity/mine-is-the-grandeur-chords.htm
Привет, Гость.
Предлагаем пройти революционный курс по гитаре.
Подарок от PrimaNota.Ru, забирай!