PrimaNota.ru - самый крупный в мире бесплатный архив песенных текстов, аккордов, табулатур и нот


Dark Moor - Miracles - текст песни, бас-таба, видео

Регистрация Запомнить меня
Войти через:  Facebook Google Twitter Vk Yandex Mail.ru

Dark Moor - Miracles - текст песни, бас-таба, видео

Печатать
Просмотров: 244
Уроки эстрадного вокала в Санкт-Петербурге
-------------------------------------------------------------------------------
                             Miracles - Dark Moor
-------------------------------------------------------------------------------
Tabbed by: zoltan56

credit to songsterr for sheet music/tabs. 

Intro: rest 13 bars: 0:38
G|-----------------|-----------------|-----------------|-----------------|X2
D|-----------------|-------------5---|-----------------|-----------------|X2
A|-----------------|-----------------|-----------------|-----------------|X2
E|-5---5-5-5-5-5-5-|-1-0-1-3---3---3-|-5---5-5-5-5-5-5-|-1-1-1-1---------|X2
B|-----------------|-----------------|-----------------|---------3-3-3-3-|X2

G|-----------------|-----------------|-----------------|-----------------|
D|-----------------|-----------------|-----------------|-----------------|
A|-----------------|-----------------|-0-0-0-0-------00|5-003-002---532--|
E|-5-5-5-5---------|-----------------|-----------------|----------33---3-|
B|-----------------|-----------------|-----------------|-----------------|

Verse 1: - 1:06 X2
G|-----------------|-----------------|-----------------|-----------------|
D|-----------------|-----------------|-------------2---|-----------------|
A|-----------------|-----------------|---------------3-|-5-5-5-5-5-5-5-7-|
E|-5-5-5-5-5-5-5-5-|-5-5-5-5-5-5-5-5-|-1---1-1-1-1-----|-----------------|
B|-----------------|-----------------|-----------------|-----------------|

Pre-Chorus: - 1:25
G|-----------------|-----------------|-----------------|-----------------|
D|-------0-------0-|-2-0-------------|-------0-------0-|-----------------|
A|-----0-------0---|-----3-----3-----|-----0-------0---|-----------------|
E|-1-3-------------|-------1-----1---|-1-3-------------|-5-5-5-3---3-3-3-|
B|-----------------|-----------------|-----------------|-----------------|

G|-----------------|-----------------|-----------------|-----------------|
D|-------0-------0-|-----------------|-----------------|-----------------|
A|-----0-------0---|-----2-0---0-0-0-|-5-5-5-5-5-5-5-5-|-7-7-7-7-7-7-7-7-|
E|-1-3-------------|-0-3-------------|-----------------|-----------------|
B|-----------------|-----------------|-----------------|-----------------|

Chorus: - 1:44
G|-----------------|-----------------|-----------------|-----------------|X2
D|-----------------|-------------5---|-----------------|-----------------|X2
A|-----------------|-----------------|-----------------|-----------------|X2
E|-5-5-5-5-5-5-5-5-|-1-0-1-3---3---3-|-5-5-5-5-5-5-5-5-|-1-1-1-1---------|X2
B|-----------------|-----------------|-----------------|---------3-3-3-3-|X2

Post Chorus: (straight into verse)
G|-----------------|
D|-----------------|
A|-0-------------3-|
E|-----------------|
B|-----------------|

Verse 2: - 2:05 X2
G|-----------------|-----------------|-----------------|-----------------|
D|-----------------|---0-------------|-----------------|-----------------|
A|-2-5-4-----------|-0---0-2---2-2-2-|-------0---------|-----------------|
E|-------3---2-3---|-----------------|-3-2-3-------3-2-|-0-0-0-0-0-0-0-0-|
B|-----------------|-----------------|-----------------|-----------------|

Pre Chorus: - 2:24
G|-----------------|-----------------|-----------------|-----------------|
D|-------0-------0-|-2-0-------------|-------0-------0-|-----------------|
A|-----0-------0---|-----3-----3-----|-----0-------0---|-----------------|
E|-1-3-------------|-------1-----1---|-1-3-------------|-5-5-5-3---3-3-3-|
B|-----------------|-----------------|-----------------|-----------------|

G|-----------------|-----------------|-----------------|-----------------|
D|-------0-------0-|-----------------|-----------------|-----------------|
A|-----0-------0---|-----2-0---0-0-0-|-5-5-5-5-5-5-5-5-|-7-7-7-7-7-7-7-7-|
E|-1-3-------------|-0-3-------------|-----------------|-----------------|
B|-----------------|-----------------|-----------------|-----------------|

Chorus 2: - 2:44
G|-----------------|-----------------|-----------------|-----------------|X2
D|-----------------|-------------5---|-----------------|-----------------|X2
A|-----------------|-----------------|-----------------|-----------------|X2
E|-5-5-5-5-5-5-5-5-|-1-0-1-3---3---3-|-5-5-5-5-5-5-5-5-|-1-1-1-1---------|X2
B|-----------------|-----------------|-----------------|---------3-3-3-3-|X2

Post Chorus:
G|-----------------|
D|-----------------|
A|-----------------|
E|-5~~-------------|
B|-----------------|

Bridge:
G|-----------------|-----------------|-----------------|-----------------|X3
D|-----------------|-----------------|-----------------|-----------------|X3
A|-----------------|-----------------|-----------------|-----------------|X3
E|-655-5-5-5-5-5-5-|-655-5-5-5-5-5-5-|-322-2-2-2-2-2-2-|-322-2-2-2-2-2-2-|X3
B|-----------------|-----------------|-----------------|-----------------|X3

G|-----------------|-----------------|-----------------|-----------------|X2
D|-----------------|-----------------|-----------------|-----------------|X2
A|-----------------|-----------------|-7-9-999-7-9-999-|-7-9-999-7-9-999-|X2
E|-555555555555556-|-555555555555556-|-----------------|-----------------|X2
B|-----------------|-----------------|-----------------|-----------------|X2

really fast:
G|--------------------------|--------------------------|
D|--------------------------|--------------------------|
A|--------------------------|--------------------------|
E|-333333555333111---000111-|-333333111111000000000000-|
B|----------------333-------|--------------------------|

G|--------------------------|------------------|
D|--------------------------|------------------|
A|--------------------------|------------------|
E|-333333555333111---000111-|-3333330000005----|
B|----------------333-------|------------------|

Solo:
G|-----------------|-----------------|-----------------|-----------------|
D|-----------------|-----------------|-----------------|-----------3-2---|
A|-5-5-5-5-5-5-5-5-|-1-1-1-1-3-3-3-3-|-5-5-5-5-5-5-5-5-|-1-1-1-1-3-----3-|
E|-----------------|-----------------|-----------------|-----------------|
B|-----------------|-----------------|-----------------|-----------------|

G|-----------------|-----------------|-----------------|-----------------|
D|-----------------|-----------------|-----------------|-----------------|
A|-----------------|-111---11--------|-----------------|-----------------|
E|-----------------|-----------------|-----------------|-3---1---3---1---|
B|-333---33333-333-|---------111-111-|-333---33333-333-|-----------------|

roll into chrous with:
G|-----------------|
D|-----------------|
A|-----3---2-------|
E|-0-00--00--000-0-|
B|-----------------|

Chorus 3: X2
G|-----------------|-----------------|-----------------|-----------------|
D|-----------------|-------------5---|-----------------|-----------------|
A|-----------------|-----------------|-----------------|-----------------|
E|-5---5-5-5-5-5-5-|-1-0-1-3---3---3-|-5---5-5-5-5-5-5-|-1-1-1-1---------|
B|-----------------|-----------------|-----------------|---------3-3-3-3-|

Outro: those are 10 and 12
G|--------------------|--------------------|--------------------|-----------------|X2
D|--------------------|--------------------|--------------------|-----------------|X2
A|-0-0012-00-00101200-|-0-0012-00-00101200-|-0-0012-00-00101200-|-----------------|X2
E|--------------------|--------------------|--------------------|-1-1-1-1---------|X2
B|--------------------|--------------------|--------------------|---------3-3-3-3-|X2

G|-----------------|
D|-----------------|
A|-0~~~~-----------|
E|-----------------|
B|-----------------|

Enjoy, a little long but its Dark Moor so little bit of variations.

| /  slide up
| \  slide down
| h  hammer-on
| p  pull-off
| ~  vibrato
| +  harmonic
| x  Mute note
===============================================================================
Добавлено: 13.05.2015
Другие материалы по этой песне:

Страница создана 22.04.2012
http://primanota.ru/dark-moor/miracles-chords.htm
Привет, Гость.
Предлагаем пройти революционный курс по гитаре.
Подарок от PrimaNota.Ru, забирай!