PrimaNota.ru - самый крупный в мире бесплатный архив песенных текстов, аккордов, табулатур и нот


Dark Moor - Vivaldis Winter - таба, видео

Регистрация Запомнить меня
Войти через:  Facebook Google Twitter Vk Yandex Mail.ru

Dark Moor - Vivaldis Winter - таба, видео

Печатать
Просмотров: 151
it is the intro and the a small part of the solo

e---------------------------------------|
B--13-13----------------13-13-----------|
G-------12-12----------------12-12------|
D10----------13-13-10-10----------13-13-|
A---------------------------------------|
E---------------------------------------|

e-----------------------------------------------------------|
B12-10-8----------12-10-8-----------------------------------|
G-------9-7--------------9-7--------------------------------|
D----------12-11-9----------12-11-9-11-9-9-11-9-9-11-9-9-11-|
A--------------------------------9------9------9------9-----|
E-----------------------------------------------------------|

E7-9  x(6)

in the next part play the same but start in 12 of 4th string instead of 10, and then in 15

min. 1:27

e--------------------------------------------------------------------------|
B--------------------------------------------------------------------------|
G10-9-10-12-10-12-9-10-12-10-12-13-12-13-10--12h13-12-13-15-13-15-12-13-15-|
D--------------------------------------------------------------------------|
A--------------------------------------------------------------------------|
E--------------------------------------------------------------------------|

e--------------------------------------------------------------------------|
B---------------------------------17--------17--------17--------17---------|
G13-15-17-15-17-13-15-17--16-17-19--16-17-19--16-17-19--19-17-16--19-17-16-|
D--------------------------------------------------------------------------|
A--------------------------------------------------------------------------|
E--------------------------------------------------------------------------|

e-----------------------------------------------------------------|
B17--------17------------------------15-17----------------15-17---|
G--19-17-16--19-17-16--------14-16-17-------------14-16-17-----17-|
D--------------------14-16-17-------------14-16-17----------------|
A-----------------------------------------------------------------|
E-----------------------------------------------------------------|

e---------------------------------------------------------------------|
B--------15--------15--------15--------15--------15--------15---------|
G14-16-17--14-16-17--14-16-17--17-16-14--17-16-14--17-16-14--17-16-14-|
D---------------------------------------------------------------------|
A---------------------------------------------------------------------|
E---------------------------------------------------------------------|

e------------------------------------------------|
B----------------13-15----------------13-15-16---|
G--------13-15-16-------------13-15-16--------16-|
D13-15-16-------------13-15-16-------------------|
A------------------------------------------------|
E------------------------------------------------|

it is all I know...well that was my first tab
Добавлено: 20.05.2012
Другие материалы по этой песне:

Страница создана 20.05.2012
http://primanota.ru/dark-moor/vivaldis-winter-chords.htm
Привет, Гость.
Предлагаем пройти революционный курс по гитаре.
Подарок от PrimaNota.Ru, забирай!