PrimaNota.ru - самый крупный в мире бесплатный архив песенных текстов, аккордов, табулатур и нот


Damien Rice - Kiss Live - таба, видео

Регистрация Запомнить меня
Войти через:  Facebook Google Twitter Vk Yandex Mail.ru

Damien Rice - Kiss Live - таба, видео

Печатать
Просмотров: 153
------------------------------------------------------------------------------
                             Kiss - Damien Rice (Prince Cover)
------------------------------------------------------------------------------
Capo: None
Tuning: Standard
Taken from: https://www.youtube.com/watch?v=2KHTyYgfA1o

INTRO
D *
e|--10-10-10-10-10-10-10-10-10----------------------------------------------------------|
B|--10-10-10-10-10-10-10-10-10----------------------------------------------------------|
G|--9--9--9--9--9--9--9--9--9-----------------------------------------------------------|
D|--10-10-10-10-10-10-10-10-10----------------------------------------------------------|
A|--------------------------------------------------------------------------------------|
E|--------------------------------------------------------------------------------------|

VERSE
G
This is basically a G barre chord, but you hammer on with your pinkie finger on the G string.
e|---3--------------3-----3--------------------------------------------------|
B|---3------x-3-----3-----3--------------------------------------------------|x4
G|-4-4------x-4h5p4-4--4--4--------------------------------------------------|
D|-5-5-5-5--x-5--------5--5-5-5----------------------------------------------|
A|-5---5-5--x----------5----5-5----------------------------------------------|
E|-3---3-3-------------3----3-3----------------------------------------------|

C
This is an A shaped Barre chord, but you hammer the barre.
e|-5-5----5-----------5-5-5---5------------------------------------------------|
B|-5-5----5--x-3h5----5-5-5---5------------------------------------------------|x2
G|-5-5----5--x-3h5----5-5-5---5------------------------------------------------|
D|-5---3--5--x-3h5----5-5-5---5------------------------------------------------|
A|-3------3--x------3---3---3-3------------------------------------------------|
E|-----------------------------------------------------------------------------|

G

e|---3--------------3-----3--------------------------------------------------|
B|---3------x-3-----3-----3--------------------------------------------------|x2
G|-4-4------x-4h5p4-4--4--4--------------------------------------------------|
D|-5-5-5-5--x-5--------5--5-5-5----------------------------------------------|
A|-5---5-5--x----------5----5-5----------------------------------------------|
E|-3---3-3-------------3----3-3----------------------------------------------|

CHORUS
D

e|-7--7---7------7-7--7---7-8------------------------------------------------|
B|-7--7---7------7-7--7---7-8------------------------------------------------|
G|-7--7---7------7-7--7---7-8------------------------------------------------|
D|-7--7---7------7-7--7---7-8------------------------------------------------|
A|-5--5---5------5-5--5---5-6------------------------------------------------|
E|---------------------------------------------------------------------------|

C

e|---------------------------------------------------------------------------|
B|-5--5--5----5--5--5--------------------------------------------------------|
G|-5--5--5----5--5--5--------------------------------------------------------|
D|-5--5--5----5--5--5--------------------------------------------------------|
A|-3--3--3----3--3--3--------------------------------------------------------|
E|---------------------------------------------------------------------------|

D

e|---------------------------------------------------------------------------|
B|-7-7-7--------7--7-7-7--7--7-7-7-7--x-x------------------------------------|
G|-7-7-7--------7--7-7-7--7--7-7-7-7--x-x------------------------------------|
D|-7-7-7--------7--7-7-7--7--7-7-7-7--x-x------------------------------------|
A|-5-5-5--------5--5-5-5--5--5-5-5-5--x-x------------------------------------|
E|---------------------------------------------------------------------------|

C

e|---------------------------------------------------------------------------|
B|-5--5-5-5-5----------------------------------------------------------------|
G|-5--5-5-5-5----------------------------------------------------------------|
D|-5--5-5-5-5----------------------------------------------------------------|
A|-3--3-3-3-5----------------------------------------------------------------|
E|---------------------------------------------------------------------------|

D *

e|--10-10-10-10-10-10-10-10-10----------------------------------------------------------|
B|--10-10-10-10-10-10-10-10-10----------------------------------------------------------|
G|--9--9--9--9--9--9--9--9--9-----------------------------------------------------------|
D|--10-10-10-10-10-10-10-10-10----------------------------------------------------------|
A|--------------------------------------------------------------------------------------|
E|--------------------------------------------------------------------------------------|

-------play that two times and then go to the break-------
The "break" is basically that G chord (355433) to a C7 chord (8.10.8.9.11.8)
but to get there you kind of go chromatically up from a G7 (353463), hitting
all the chords on the way except Ab7 (G7, A7, Bb7, B7) and then you hang out
on the C7, eventually go back to the G chord, then start the main chord
progression again.

Here is the lyric breakdown:

INTRO
D *
UH!!


VERSE
(N.C)                G                    G
You don't have to be beautiful to turn me on
                  G                         G
I just need your body, baby, from dusk 'til dawn
                  C                   C
You don't need experience to turn me on
                      G
You just leave it all up to me
                          G
I'm gonna show you what it's all about


CHORUS
                      D
You don't have to be rich to be my girl
                     C
You don't have to be cool to rule my world
                     D
Ain't no particular sign I'm more compatible with
                  C               D *
I just want your extra time and your... kiss


VERSE
                     G                                G
You got to not talk dirty, baby, if you wanna impress me
                 G                                   G
You can't be too flirty, mama, I know how to undress me
                   C                        C
I want to be your fantasy, to have an attitude
                     G                      G
You just leave it all up to me, and be your fool


CHORUS
                     D
You don't have to be rich to be my girl
                     C
You don't have to be cool to rule my world
                    D
Ain't no particular sign I'm more compatible with
                 C                     D *
I just want your extra time and your...kiss


-BREAK-


VERSE
(N.C.)     G                                              G
Women, not girls they rule my world, I said they rule my world
         G
Act your age not your shoe size
                      G
maybe we could do the twirl
                        C                      C
You don't have to watch Dynasty to have an attitude
                      G                              G
You just leave it all up to me, my love will be your food


CHORUS
                      D
You don't have to be rich to be my girl
                     C
You don't have to be cool to rule my world
                    D
Ain't no particular sign I'm compatible with
                 C                      D *
I just want your extra time and your...  kiss

Please Correct As Necessary, watch video for timing. Cheers.

JH
Добавлено: 24.09.2015
Другие материалы по этой песне:
  • Аккорды и текст

Страница создана 24.09.2015
http://primanota.ru/damien-rice/kiss-live-chords.htm
Привет, Гость.
Предлагаем пройти революционный курс по гитаре.
Подарок от PrimaNota.Ru, забирай!