PrimaNota.ru - самый крупный в мире бесплатный архив песенных текстов, аккордов, табулатур и нот


Damien Jurado - Inevitable - таба, видео

Регистрация Запомнить меня
Войти через:  Facebook Google Twitter Vk Yandex Mail.ru

Damien Jurado - Inevitable - таба, видео

Печатать
Просмотров: 85
Author/Artist: Damian Jurardo
Title: Inevitable
Album: And Gathered In Song - I Break Chairs
Email: scott_houle@hotmail.com


Standard Tuning


Intro/Verses


------------------------------------------------------------------------
------------------------------------------------------------------------
------------------------------------------------------------------------
------------------------------------------------------------------------
--7-9-9-7-9-9--7-9-9-7-9/12-9--7-9-9-5-5-5-5-7-9-9-5-5-5-5--------------
------------------------------------------------------------------------


Chorus

Gtr.1


E       D       G

------------------------------------------------------------------------
------------------------------------------------------------------------
-9-9-9-9/7-7-7-7-12-12-12-12-12-12-12-12-12-12-12-12-12-12-12-12--------
-9-9-9-9/7-7-7-7-12-12-12-12-12-12-12-12-12-12-12-12-12-12-12-12--------
-7-7-7-7/5-5-5-5-10-10-10-10-10-10-10-10-10-10-10-10-10-10-10-10--------
------------------------------------------------------------------------


Gtr. 2

E       D       G

------------------------------------------------------------------------
------------------------------------------------------------------------
-9-9-9-9/7-7-7-7-12-12-12-12-12-12-12-12-12-12-12-12-12-12-12-12--------
------------------------------------------------------------------------
-7-7-7-7/5-5-5-5-10-10-10-10-10-10-10-10-10-10-10-10-10-10-10-10--------
------------------------------------------------------------------------


Listen to the Album for rhythm and correct Number of repeats. On the album
the chorus is octaves, but chords sounds fine, especially by yourself.


Questions, comments: scott_houle@hotmail.com
     
Добавлено: 01.08.2013
Другие материалы по этой песне:
  • Аккорды и текст

Страница создана 01.08.2013
http://primanota.ru/damien-jurado/inevitable-chords.htm
Привет, Гость.
Предлагаем пройти революционный курс по гитаре.
Подарок от PrimaNota.Ru, забирай!