PrimaNota.ru - самый крупный в мире бесплатный архив песенных текстов, аккордов, табулатур и нот


Damien Jurado - Tragedy - таба, видео

Регистрация Запомнить меня
Войти через:  Facebook Google Twitter Vk Yandex Mail.ru

Damien Jurado - Tragedy - таба, видео

Печатать
Просмотров: 96
Уроки эстрадного вокала в Санкт-Петербурге
Tragedy

written by: Damien Jurado
from Damien Jurado album Rehearsals for Departure
tabbed by Adrian Dumchus (dumchusa@aol.com) 

played in Standard Tuning capo on 2nd (E A D G B E from low to high)

capo on 2nd

Intro:
    E
E-|------------------------|------------------------|
B-|-0--------0-----------0-|----------0-------------|
G-|----1-----------1-------|----1-----------1-----1-|
D-|------------------------|------------------------|
A-|------------------------|------------------------|
E-|-0-----0-----0-----0----|-0-----0-----0-----0----|

    A
E-|-0--------0-----------0-|----------0-------------|
B-|----2-----------2-------|----2-----------2-----2-|
G-|------------------------|------------------------|  Repeat 1x
D-|------------------------|------------------------|
A-|-0-----0-----0-----0----|-0-----0-----0-----0----|
E-|------------------------|------------------------|

Verse:

    E
E-|------------------------|------------------------|
B-|-0--------0-----------0-|----------0-------------|
G-|----1-----------1-------|----1-----------1-----1-|
D-|------------------------|------------------------|
A-|------------------------|------------------------|
E-|-0-----0-----0-----0----|-0-----0-----0-----0----|

   Girl the life you're leading ...

    A
E-|-0--------0-----------0-|----------0-------------|
B-|----2-----------2-------|----2-----------2-----2-|
G-|------------------------|------------------------|
D-|------------------------|------------------------|
A-|-0-----0-----0-----0----|-0-----0-----0-----0----|
E-|------------------------|------------------------|

... is hard

    E
E-|------------------------|------------------------|
B-|-0--------0-----------0-|------------------------|
G-|----1-----------1-------|----1-----2-----1-----1-|
D-|------------------------|------------------------|
A-|------------------------|------------------------|
E-|-0-----0-----0-----0----|-0-----0-----0-----0----|

   You got yourself a boyfriend ...

    A
E-|-0--------0-----------0-|----------0-------------|
B-|----2-----------2-------|----2-----------2-----2-|
G-|------------------------|------------------------|
D-|------------------------|------------------------|
A-|-0-----0-----0-----0----|-0-----0-----0-----0----|
E-|------------------------|------------------------|

... and friend 

    F#
E-|------------------------|------------------------|
B-|-2--------2-----------2-|----------2-------------|
G-|----3-----------3-------|----3-----------3-----3-|
D-|------------------------|------------------------|
A-|------------------------|------------------------|
E-|-2-----2-----2-----2----|-2-----2-----2-----2----|

    No          one          sees      the    traged...

    A
E-|-0----------------------|
B-|-2----------------------|
G-|-2----------------------|
D-|-2----------------------| return to beginning of verse
A-|-0----------------------|
E-|------------------------|

 ...y          except for me ...

     
Добавлено: 07.11.2013
Другие материалы по этой песне:
  • Аккорды и текст

Страница создана 21.08.2013
http://primanota.ru/damien-jurado/tragedy-chords.htm
Привет, Гость.
Предлагаем пройти революционный курс по гитаре.
Подарок от PrimaNota.Ru, забирай!